Ozzy Osbourne - Mr Crowley Chords & Tabs

 

Mr Crowley Chords & Tabs

Ozzy Osbourne Chords & Tabs

Version: 3 Type: Tab 0 ratings
1 star 2 stars 3 stars 4 stars 5 stars
comments

Mr Crowley Tab

   
#----------------------------------PLEASE NOTE---------------------------------#
#This file is the author's own work and represents their interpretation of the #
#song. You may only use this file for private study, scholarship, or research. #
#------------------------------------------------------------------------------##

                                   MR. CROWLEY
                          As recorded by Ozzy Osbourne
                      (From the 1981 Album BLIZZARD OF OZZ)

Words and Music by Ozzy Osbourne and Randy Rhoads

AWESOME! Learn this!   

Gtr I (E A D G B E) - 'Kybd.1'
Gtr II (E A D G B E) - 'Kybd.2'
Gtr III (E A D G B E) - 'Dist.'
Gtr IV (E A D G B E) - 'Untitled'
Gtr V (E A D G B E) - 'Untitled'

   Intro
    Q=90
    Dm             Am             F
   4/4
    Gtr III
     |             |               |
     /             /               /

    Gtr I 
||---------------|--------------|--------------|
||o--------------|--------------|-----------0--|
||------------0--|-2--------2-0-|------0-2-----|
||---0---2-3-----|-----2--------|--3-----------|
||o--------------|-------0------|--------------|
||---------------|--------------|--------------|
|
|   Gtr II
||--10-----------|-8------------|-13-----------|
||o--------------|--------------|--------------|
||---------------|--------------|--------------|
||---------------|--------------|--------------|
||o--------------|--------------|--------------|
||---------------|--------------|--------------|


  C               Am             Em
   |               |              |
   /               /              /

|---------------|--------------|--0----------|
|--1--------1-0-|------0-1--3--|-----0-------|
|------0--------|--2-----------|-------------|
|---------------|--------------|--------2----|
|--------3------|--------------|-------------|
|---------------|--------------|-------------|
|
|-12------------|-17-----------|-15----------|
|---------------|--------------|-------------|
|---------------|--------------|-------------|
|---------------|--------------|-------------|
|---------------|--------------|-------------|
|---------------|--------------|-------------|


                                               1.               2.
  Am    Bb        G5  F5  E5  F5    Asus4       A               A
   |     |         |   |   |   |     |           |               |
   /     /         /   /   /   /     /           /               /

|--5-----6---8--|-10---8---7---8--|-10--------|--9-----------||--9--------|
|------------6--|--8---6---5---6--|-10--------|-10----------o||-10--------|
|--2-----3------|-----------------|-----------|--------------||-----------|
|---------------|-----------------|--7--------|--7------3-2--||--7--------|
|------------8--|-10---8---7---8--|-----------|-------------o||-----------|
|---------------|-----------------|-----------|--------------||-----------|
|
|-17----18--20--|-22--20--19--20--|-22--------|-21-----------||-21--------|
|---------------|-----------------|-----------|-------------o||-----------|
|---------------|-----------------|-----------|--------------||-----------|
|---------------|-----------------|-----------|--------------||-----------|
|---------------|-----------------|-----------|-------------o||-----------|
|---------------|-----------------|-----------|--------------||-----------|


 Verse
  Q=108
  Gtrs IV, V
|-1----(1)---------|----------------|------------------|----------------------|
|-3----(3)---------|-3----(3)-------|------------------|----------------------|
|-2----(2)---------|-2----(2)-------|-3---3------------|-3---3-(3)------------|
|-0----(0)---------|-0----(0)-------|-3---3------------|-3---3-(3)------------|
|----------0-(0)---|----------------|-1---1--1-1h3p1p0-|-1---1-(1)--3b4-(3)---|
|----------------1-|----------20\---|------------------|----------------------|


|-1----(1)---------|----------------|--------------------|---------------------|
|-3----(3)---------|-3----(3)-------|--------------------|---------------------|
|-2----(2)---------|-2----(2)-------|-3---3--------------|-3---3-(3)-----------|
|-0----(0)---------|-0----(0)-------|-3---3--------------|-3---3-(3)-----------|
|----------0-(0)---|----------------|-1---1--1-1-1h3p1p0-|-1---1-(1)---1b2-(1)-|
|----------------1-|----------20\---|--------------------|---------------------|


                        PM|                     PM----|              ~
|---------------|-----------------|---------------|---------------------|
|---------------|-----------5--6--|---------------|-----5-6-5-6s8--8s6--|
|-5---5-(5)---5-|-(5)-------5--5--|-7---7-(7)-----|-----5-7-5-7s9--9s7--|
|-5---5-(5)---5-|-(5)-------5--7--|-7---7-(7)-----|-5-7-----------------|
|-3---3-(3)---3-|-(3)---5-7-------|-5---5-(5)---0-|---------------------|
|---------------|-----------------|---------------|---------------------|


                                                  \0.5_____/
                        PM|
|---------------|-----------------|-------------|--------------------|
|-5-------------|-----------------|-------------|--------------------|
|-5---5-(5)---5-|-(5)-------5--5--|-3--3----3---|--------------------|
|-5---5-(5)---5-|-(5)-------5--5--|-3--3----3---|--------------------|
|-3---3-(3)---3-|-(3)---3-3-3--3--|-1--1----1p0-|-0-------(0)-(0)----|
|---------------|-----------------|-------------|--------------------|


|-1----(1)---------|-------------------|
|-3----(3)---------|-3----(3)----------|
|-2----(2)---------|-2----(2)----------|
|-0----(0)---------|-0----(0)----------|
|----------0-(0)---|-------------------|
|----------------1-|----------21b22\---|


|------------------|----------------------|
|------------------|----------------------|
|-3---3------------|-3---3-(3)------------|
|-3---3------------|-3---3-(3)------------|
|-1---1--1-1h3p1p0-|-1---1-(1)--3b4-(3)---|
|------------------|----------------------|


|-1----(1)---------|----------------|--------------------|---------------------|
|-3----(3)---------|-3----(3)-------|--------------------|---------------------|
|-2----(2)---------|-2----(2)-------|-3---3--------------|-3---3-(3)-----------|
|-0----(0)---------|-0----(0)-------|-3---3--------------|-3---3-(3)-----------|
|----------0-(0)---|----------------|-1---1--1-1-1h3p1p0-|-1---1-(1)---1b2-(1)-|
|----------------1-|----------20\---|--------------------|---------------------|


                        PM|
|---------------|-----------------|
|---------------|-----------5--6--|
|-5---5-(5)---5-|-(5)-------5--5--|
|-5---5-(5)---5-|-(5)-------5--7--|
|-3---3-(3)---3-|-(3)---5-7-------|
|---------------|-----------------|


              PM
|---------------|---------------------------------|
|---------------|-3s4s3s1-3p1---1-----------------|
|-7---7-(7)-----|-------------3---3p2p0---0-------|
|-7---7-(7)-----|-----------------------3---3p2p0-|
|-5---5-(5)---0-|---------------------------------|
|---------------|---------------------------------|


                        PM|
|---------------|-----------------|---------|
|---------------|-----------------|---------|
|-----5-(5)---5-|-(5)-------5--5--|-3--3----|
|-----5-(5)---5-|-(5)-------5--5--|-3--3----|
|-3---3-(3)---3-|-(3)---3-3-3--3--|-1--1----|
|---------------|-----------------|---------|


  \2_________|
|---------------||
|---------------||
|---------------||
|---------------||
|-0---------(0)-||
|---------------||


 1st Guitar Solo
  DmV
  Gtr V
   |                                                                      |
   /                                                                      /

  Gtr IV
|----------10--------------------------------------------10---------------------10-------10-|
|-------10----13-10------------10-13-13-10------------10----13-10------------10----13-10----|
|-12b14-------------12b14-(12)-------------12b14-(12)-------------12b14-(12)----------------|
|-------------------------------------------------------------------------------------------|
|-------------------------------------------------------------------------------------------|
|-------------------------------------------------------------------------------------------|


  Bb
   |                                                     |        |    |
   /                                                     /        x    x

|-13p10----10--------------------------------------------------------------|
|-------13----13p10-13p10----10--------------------------------------------|
|-------------------------12----12p10-12p10----10--------------------------|
|-------------------------------------------12----12p10-12p10----10-----10-|
|-------------------------------------------------------------12----12-----|
|--------------------------------------------------------------------------|


  C
   |                                                     |
   /                                                     /

|-------------------------------------10-13-16-16-15-13-18-17-15-20-18-16-|
|-------------------10-10----10-10-12-------------------------------------|
|----------10-10-10-------12----------------------------------------------|
|-12-10h12----------------------------------------------------------------|
|-------------------------------------------------------------------------|
|-------------------------------------------------------------------------|


  DmV                     C5
   |           |      |   |
   /           /      /   /

           ~~~~       ~~~~
|-20b22--(20)-20b22r(20)---20p17-20-|
|-----------------------------------|
|-----------------------------------|
|-----------------------------------|
|-----------------------------------|
|-----------------------------------|


  Bb
   |                          |    |                    |     |     |
   /                          /    /                    /     o     o

|-17h18p17------------------------18p17p15-17p15-------------------------|
|----------20-17h20p17h18p17h20p0----------------18p17-15h17-15p13-15p13-|
|------------------------------------------------------------------------|
|------------------------------------------------------------------------|
|------------------------------------------------------------------------|
|------------------------------------------------------------------------|


  Em7b5
   |                               |      |
   /                               o      o

                           ~~~~~~~
|----------------------------------------15b16-|
|----13--------------------------------x-------|
|-14----15S12----12----------------0-x---------|
|-------------15----14p12-14-(14)--0-----------|
|----------------------------------0-----------|
|----------------------------------------------|


  A
    |           |  |  |     |       |         |       |  |     |     |
    /           /  /  /     /       /         /       /  /     /     x

                                                         ~~~~~~~~~~
|-(15)b17-(15)-15-15-15-13-12h13p12--10-12-|----------------------------|
|------------------------------------------|-15b17=====(15)--(15)r------|
|------------------------------------------|-----------------------0----|
|------------------------------------------|-----------------------0----|
|------------------------------------------|----------------------------|
|------------------------------------------|--------------------------0-|


  DmV
   |                                                     |
   /                                                     /

|-13p10----10----10-13p10-10-10----10-13p10----10-------13p10----10----10-|
|-------13----13----------------13----------13----13-10-------13----13----|
|-------------------------------------------------------------------------|
|-------------------------------------------------------------------------|
|-------------------------------------------------------------------------|
|-------------------------------------------------------------------------|


  Bb
   |                                                     |          |      |
   /                                                     /          x      x

|-13p10----10----10-13p10----10-------13p10----10-------13p10----10--------------|
|-------13----13----------13----13p10-------13----13p10-------13-----13-10h=13---|
|--------------------------------------------------------------------------------|
|--------------------------------------------------------------------------------|
|--------------------------------------------------------------------------------|
|--------------------------------------------------------------------------------|


  C                                            DmV               C
  |                                |           |      |   |       |
  /                                /           /      /   /       /

                                 ~
|----------------------------------5h6p5---5-|--------------------------------|
|-8h10p8S5h6p5s3-4p3s1h3h5h6p5p3h5-------8---|-8b9---(8)-[8]pb9--[8]pb9r([8])-|
|--------------------------------------------|--------------------------------|
|--------------------------------------------|--------------------------------|
|--------------------------------------------|--------------------------------|
|--------------------------------------------|--------------------------------|


  Bb                              Em7b5
  |       |   |       |   |  |    |                       |   |
  /       /   /       /   o  o    /                       o   o

    ~~~~~~
|-------------------------------|-------------------------------|
|-6-----------6p5---------------|-------------------------------|
|---7-(7)-7p5-----7p5-----------|-------------------------------|
|---------------------7-6p=5----|-5h6p5-3-5-------5p3-----------|
|-----------------------------8-|-----------8p5s4-----5p3-5h8p5-|
|-------------------------------|-------------------------------|


  A     Asus4    A
  |  |  |  |     |
  /  /  /  /     /

  ~~~~~
|--------------|-------------|
|--------------|-------------|
|--------------|-------------|
|--------------|-------------|
|-7--7--7--7s4-|-------------|
|--------------|-3------(3)--|


 2nd Verse
|-1----(1)---------|-------------------|
|-3----(3)---------|-3----(3)----------|
|-2----(2)---------|-2----(2)----------|
|-0----(0)---------|-0----(0)----------|
|----------0-(0)---|-------------------|
|----------------1-|----------21b22\---|


|------------------|----------------------|
|------------------|----------------------|
|-3---3------------|-3---3-(3)------------|
|-3---3------------|-3---3-(3)------------|
|-1---1--1-1h3p1p0-|-1---1-(1)--3b4-(3)---|
|------------------|----------------------|


|-1----(1)---------|----------------|--------------------|---------------------|
|-3----(3)---------|-3----(3)-------|--------------------|---------------------|
|-2----(2)---------|-2----(2)-------|-3---3--------------|-3---3-(3)-----------|
|-0----(0)---------|-0----(0)-------|-3---3--------------|-3---3-(3)-----------|
|----------0-(0)---|----------------|-1---1--1-1-1h3p1p0-|-1---1-(1)---1b2-(1)-|
|----------------1-|----------20\---|--------------------|---------------------|

[ Tab from: http://www.guitartabs.cc/tabs/o/ozzy_osbourne/mr_crowley_tab_ver_3.html ]
                        PM|                     PM-
|---------------|-----------------|---------------|
|---------------|-----------5--6--|---------------|
|-5---5-(5)---5-|-(5)-------5--5--|-7---7-(7)-----|
|-5---5-(5)---5-|-(5)-------5--7--|-7---7-(7)-----|
|-3---3-(3)---3-|-(3)---5-7-------|-5---5-(5)---0-|
|---------------|-----------------|---------------|


 ---------------------|
|---------------------------------5h6--|
|---------------------------5-6h8------|
|---------------------5-7p5------------|
|-------5-7p5---5-7-8------------------|
|-5-7-8-------8------------------------|
|--------------------------------------|


                        PM|
|---------------|-----------------|-------------|------------------|
|-5-------------|-----------------|-------------|------------------|
|-5---5-(5)---5-|-(5)-------5--5--|-3--3----3---|------------------|
|-5---5-(5)---5-|-(5)-------5--5--|-3--3----3---|-2----------------|
|-3---3-(3)---3-|-(3)---3-3-3--3--|-1--1----1p0-|-0--(0)-(0)--(0)--|
|---------------|-----------------|-------------|------------------|


 Bridge
  DmV                Bb               C                     DmV
  Gtr V
  |            |     |      | |  |||   |              |     |     | |  |
  /            /     /      / /  ///   /              /     /     / /  /

  Gtr IV
|----------5-------|----------------|---------5h6-8-6-5---|-------6-5------|
|----5h6h8---8-6-5-|--------6-5-----|-(5)---8-----------8-|-6--------------|
|------------------|-7--------------|---------------------|----------------|
|------------------|----------------|---------------------|----------------|
|------------------|----------------|---------------------|----------------|
|------------------|----------------|---------------------|----------------|
|
| Gtr III
|------------------|----------------|---------------------|----------------|
|--------5-6-5-----|-----8s10-8-----|-(8)---------5-------|-----6s8-6------|
|------7-------7-5-|----------------|---------5-7---7-5---|----------------|
|----7-------------|-8--------------|-------5-----------5-|-7--------------|
|------------------|----------------|---------------------|----------------|
|------------------|----------------|---------------------|----------------|


  Bb                     Em7b5          A
   |              | | |  |          |   |     |          |     |  |
   /              / o o  /          /   /     /          /     /  /

|-(5)------------------|-------5------|----------------|-------------
|---------5h6-8-6-5----|---------8----|-5--6--8--8s10--|-8--6--5-----
|-------7-----------7--|--------------|----------------|-------------
|----------------------|-8------------|----------------|-------------
|----------------------|--------------|----------------|-------------
|----------------------|--------------|----------------|-------------
|
|----------------------|--------------|----------------|-------------
|-(6)------------------|-----5s6-5----|-------5-----6--|-5-----------
|-----------5-7-5------|--------------|-6--7-----------|----7--6-----
|---------8-------8-7--|-5------------|----------------|-------------
|-------8--------------|--------------|----------------|-------------
|----------------------|--------------|----------------|-------------


  DmV                Bb               C                     DmV
  |            |     |      | |  |||   |              |     |     | |  |
  /            /     /      / /  ///   /              /     /     / /  /

|----------5-------|----------------|---------5h6-8-6-5---|-5-----6-5------|
|----5h6h8---8-6-5-|--------6-5-----|-(5)---8-----------8-|-6--------------|
|------------------|-7--------------|---------------------|----------------|
|------------------|----------------|---------------------|----------------|
|------------------|----------------|---------------------|----------------|
|------------------|----------------|---------------------|----------------|
|
|------------------|----------------|---------------------|----------------|
|--------5-6-5-----|-----8s10-8-----|-(8)---------5-------|-----6s8-6------|
|------7-------7-5-|----------------|---------5-7---7-5---|----------------|
|----7-------------|-8--------------|-------5-----------5-|-7--------------|
|------------------|----------------|---------------------|----------------|
|------------------|----------------|---------------------|----------------|


  Bb                     Em7b5          A
   |              | | |  |          |   |     |          |     |  |
   /              / o o  /          /   /     /          /     /  /

|--5-------------------|-------5------|----------------|-------------|
|---------5h6-8-6-5----|---------8----|-5--6--8--8s10--|-8--6--5-----|
|-------7-----------7--|--------------|----------------|-------------|
|----------------------|-8------------|----------------|-------------|
|----------------------|--------------|----------------|-------------|
|----------------------|--------------|----------------|-------------|
|
|----------------------|--------------|----------------|-------------|
|-(6)------------------|-----5s6-5----|-------5-----6--|-5-----------|
|-----------5-7-5------|--------------|-6--7-----------|----7--6-----|
|---------8-------8-7--|-5------------|----------------|-------------|
|-------8--------------|--------------|----------------|-------------|
|----------------------|--------------|----------------|-------------|


 Outro Solo
  DmV
  Gtr V
   |                                                     |
   /                                                     /

  Gtr IV
|-17p13----17p13----17p13----17p13----17p13----17p13----17p13----17p13----|
|-------15-------15-------15-------15-------15-------15-------15-------15-|
|-------------------------------------------------------------------------|
|-------------------------------------------------------------------------|
|-------------------------------------------------------------------------|
|-------------------------------------------------------------------------|


  Gm
   |                                                     |
   /                                                     /

|-18p13----18p13----18p13----18p13----18p13----18p13----18-13----18\-|
|-------15-------15-------15-------15-------15-------15-------15-----|
|--------------------------------------------------------------------|
|--------------------------------------------------------------------|
|--------------------------------------------------------------------|
|--------------------------------------------------------------------|


  C
   |                                                     |
   /                                                     /

|-15p12----15p12----15p12----15p12----15p12----15p12----15p12----15p12----|
|-------13-------13-------13-------13-------13-------13-------13-------13-|
|-------------------------------------------------------------------------|
|-------------------------------------------------------------------------|
|-------------------------------------------------------------------------|
|-------------------------------------------------------------------------|


  F
   |                                                     |
   /                                                     /

|-17p13----17p13----17p13----17p13----17p13----17p13----17p13-------|
|-------13-------13-------13-------13-------13-------13-------13-17-|
|-------------------------------------------------------------------|
|-------------------------------------------------------------------|
|-------------------------------------------------------------------|
|-------------------------------------------------------------------|


  Bb                            F       Em7b5
   |                             |       |           |
   /                             /       /           /

                                         TP  TP  TP  TP
|-------------------------------------|-15--------------|
|-15h16p15h16p15h16p15h16-18-16-15-16-|-----17------17--|
|-15h17p15h17p15h17p15h17-19-17-15-17-|---------15------|
|-------------------------------------|-----------------|
|-------------------------------------|-----------------|
|-------------------------------------|-----------------|


  Asus4                    A                     A
   | || | ||| | ||| | |||   |   |    |   |   |    |    |  |||
   / o/ / /// / /// / ///   /   o    /   /   /    /    o  ///

   TP   TP    TP    TP                            ~~~~~~~~
|------------------------|----------------------------------9-|
|-14---15----17----18----|-17--15h17p=15h=17p=15-17--(17)-----|
|------------------------|------------------------------------|
|------------------------|------------------------------------|
|------------------------|------------------------------------|
|------------------------|------------------------------------|


  DmV
  |                    |
  /                    /

|-9tr10----------------------|
|--------9tr10---------------|
|---------------9tr10--6tr7--|
|----------------------------|
|----------------------------|
|----------------------------|


  Gm
  |                               |
  /                               /

                               ~~~~
|-----------9h10-12p10-12b13-(12)--0-|
|------9h10------------------------0-|
|-9h10-------------------------------|
|------------------------------------|
|------------------------------------|
|------------------------------------|


  C                                 F
  |                       |         |                   |
  /                       /         /                   /

|-5h6p5---5-----------------------|----------------------------|
|-------8---8-6p5-6p5-------------|----------------------------|
|---------------------7p5---------|----------------------------|
|-------------------------8p7-5---|-5---------5h7p5------------|
|-------------------------------8-|---8p7p5-7-------8--(8)s0---|
|---------------------------------|----------------------------|


  Bb                                  F             Em7b5
  |                                   |             |                  |
  /                                   /             /                  /

                                                                    ~
|-------------------------------------5h6h8p6p5-3-|-5-------------5----------|
|-------------------------------5h6h8-------------|---8-6p5-6p5-8---8--6-5---|
|-------------------2h3h5-3h5h7-------------------|--------------------------|
|-------------2h3h5-------------------------------|--------------------------|
|-------1h3h5-------------------------------------|--------------------------|
|-1h3h5-------------------------------------------|--------------------------|


  Asus4
  |    |||    ||||    ||||    |||
  /    o//    ////    ////    ///

|--------------------------------|
|-2tr3---3tr5----5tr6----6tr8----|
|--------------------------------|
|--------------------------------|
|--------------------------------|
|--------------------------------|


  A                A                   DmV
  |       |     ||| |       | | |  |    |           |
  /       o     /// /       o / /  /    /           /

                                              ~~
|------------------------------------|---------------------|
|-8tr10--10tr11----11tr13--15s=17p15-|-17h18-------17-18---|
|------------------------------------|-------19------------|
|------------------------------------|---------------------|
|------------------------------------|---------------------|
|------------------------------------|---------------------|


  Gm                        C
   |                |        |                                   |
   /                /        /                                   /

         ~~~~~~~~~~~~~~
|-------------------------|-17h18p17----17----------------17----------20b22-|
|-17-18----------------18-|----------20----20p18p17-18h20----20p18p17-------|
|-------19--(19)--(19)----|-------------------------------------------------|
|-------------------------|-------------------------------------------------|
|-------------------------|-------------------------------------------------|
|-------------------------|-------------------------------------------------|


  F
    |                   |
    /                   /

    ~~~~~~~~~~~~~~~~~~
|-(20)--20b22-20-(20)--18-17-|
|----------------------------|
|----------------------------|
|----------------------------|
|----------------------------|
|----------------------------|


  Bb                                                    F5
   |                                                     |
   /                                                     /

   TP TP TP TP TP TP TP TP TP TP TP TP TP TP TP TP TP TP TP TP TP TP TPTP
|-20-18-17-20-18-15-20-18-14-19-15-13-17-14-13-16-13-11-15-11s10-13-10-9-|
|------------------------------------------------------------------------|
|------------------------------------------------------------------------|
|------------------------------------------------------------------------|
|------------------------------------------------------------------------|
|------------------------------------------------------------------------|


  Em7b5                                            Asus4
   |                                     |         | ||| |||| |||| |||
   /                                     /         / o// //// //// ///

|-/5h6p5---5-------------------------------------|--------------------|
|--------8---8-6-5---5---------------------------|--------------------|
|------------------7---7p5S2h3p2p0h2p0---------0-|-2p==0--------------|
|--------------------------------------2h3p2h3---|----------3----2p===|
|------------------------------------------------|--------------------|
|------------------------------------------------|--------------------|


  A       A          DmV                       Gm
  |  | ||||   | |||   |              |         |            |
  /  o ////   o ///   /              /         /            /

              ~~~~~~~~~~~~~~~~~
|------------------|-------------------------|------------------------|
|------------------|-------------------------|------------------------|
|------------------|-------------------------|------------------------|
|-0----------------|-------------------3-----|----------6-3-5p3-------|
|----3----0--------|-/5----(5)-5-5p3h5---5-3-|-5----(5)---------5-3---|
|-----------3-1----|-------------------------|------------------------|


  C                       F5
  |                 |     |                  |
  /                 /     /                  /

|-----------------------|-----------------------0-|
|-----------------------|---------6p5---------0---|
|-----------------------|-----5h7-----7p5-7-------|
|-------------------3-5-|-6s7---------------------|
|-5--3h=5-(5)b6r(5)-----|-------------------------|
|-----------------------|-------------------------|


  Bb                      F         Em7b5
  |                       |         |                        |
  /                       /         /                        /

|-5h6p5---5-----------------------|----------------------------*|
|-------8---8p6p5-6p5---5-----6---|----------------------------*|
|---------------------7---7p5---5-|----------------------------*|
|---------------------------------|-8p7p5---5------------------*|
|---------------------------------|-------8---8p(7)p(5)-(7)----*|
|---------------------------------|----------------------------*|



***************************************************************************************
* Generated using Power Tab Editor by Brad Larsen - http://powertab.guitarnetwork.org *
***************************************************************************************
Comments