Ozzy Osbourne - Mama Im Coming Home Chords & Tabs

 

Mama Im Coming Home Chords & Tabs

Ozzy Osbourne Chords & Tabs

Version: 7 Type: Tab 0 ratings
1 star 2 stars 3 stars 4 stars 5 stars
comments

Mama Im Coming Home Tab

   
Tabbed By Julian Loor
1972 Plymouth Fury III
julianloor_13@hotmail.com


 h   - hammer-on
 p   - pull-off
 b   - bend
 r   - bend release 
 / \ - slide 
 ~   - vibrato
 =   - hold bend
 ph  - pinch harmonic
 PM  - pal muting


Intro

|-12---------------|
|----12------------|
|-------11b13r11-9-|
|------------------|
|------------------|
|------------------|

E
|-12-0---11-0---9-0------0------0-----0------0-----0---|
|------0------0-----0-12---0-10---0-9---0------0-----0-|
|-----------------------------------------11-----9-----|
|------------------------------------------------------|   x2
|------------------------------------------------------|
|------------------------------------------------------|

Verse 1

|-12-0---11-0---9-0------0------0-----0------0-----0---|
|------0------0-----0-12---0-10---0-9---0------0-----0-|
|-----------------------------------------11-----9-----|
|------------------------------------------------------|
|------------------------------------------------------|
|------------------------------------------------------|

A
Mamma I'm Coming Home....

E
|-12-0---11-0---9-0------0------0-----0------0-----0---|
|------0------0-----0-12---0-10---0-9---0------0-----0-|
|-----------------------------------------11-----9-----|
|------------------------------------------------------|   x2
|------------------------------------------------------|
|------------------------------------------------------|

A                        E
Mamma I'm Coming Home....

c#m    A    E

c#m    A    B

E
|-12-0---11-0---9-0------0------0-----0------0-----0---|
|------0------0-----0-12---0-10---0-9---0------0-----0-|
|-----------------------------------------11-----9-----|
|------------------------------------------------------|
|------------------------------------------------------|
|------------------------------------------------------|

|------------------------------------------------------------------------|
|------------------------------------------------------------------------|
|------------------------------------------------------------------------|
|-9~----------------------------------------------------9b11=-9b11r9--9~-|
|------------------------------------------------------------------------|
|------------------------------------------------------------------------|

A
Mamma I'm Coming Home..

E
|-12-0---11-0---9-0------0------0-----0------0-----0---|
|------0------0-----0-12---0-10---0-9---0------0-----0-|
|-----------------------------------------11-----9-----|
|------------------------------------------------------| x2
|------------------------------------------------------|
|------------------------------------------------------|

|------------------------------------------------------------------------|
|------------------------------------------------------------------------|
|------------------------------------------------------------------------|
|-9~----------------------------------------------------9b11=-9b11r9--9~-|
|------------------------------------------------------------------------|
|------------------------------------------------------------------------|

A                      E
Mamma I'm Coming Home..

   c#m    A    E   
|-----------------|
|-----------------|
|-------------9-9-|
|-11-11--7-7--9-9-|
|-11-11--7-7--7-7-|
|-9--9---5-5------|

                  |---------------------|
                  |---------------------|
                  |---------------------|
                  |---------------------|
                  |-7ph~-9ph~-7ph~-9ph~-|
                  |---------------------|
[ Tab from: http://www.guitartabs.cc/tabs/o/ozzy_osbourne/mama_im_coming_home_tab_ver_7.html ]
   c#m    A        B      G# A    c#m     B       A       G# A 
|------------------------------| |-----------------------------|
|------------------------------| |-----------------------------|
|------------------------------| |-----------------------------|
|-11-11--7-7--9-9-9-9-9-9--6-7-| |-9/11-9-9h11P9-7-6-6h7-6---7-|
|-11-11--7-7--9-9-9-9-9-9--6-7-| |-------------------------9---|
|-9--9---5-5--7-7-7-7-7-7--4-5-| |-----------------------------|
                pm pm pm 

c#m     B    A G# A  B  E  c#m

A  B  C  D  E

C  D  B

Riff before the solo.

|-3-0---5-----0-----3-2-0---0-2-4-0-----3-0---5-0---0-0--------|
|-----0---0-----0---------3---------0-------0-----0-----0------|
|-----------0-----1-------------------1-------------------1----|
|--------------------------------------------------------------|
|--------------------------------------------------------------|
|--------------------------------------------------------------|

      B
|------------|
|------------|
|------------|
|-9-9-9-9-9--|
|-9-9-9-9-9--|
|-7-7-7-7-7--|
 pm pm pm pm

Solo

|-------------------12----12------------------------|
|-------------------12b14-12b14r12-10h12-10h12p10-9-|
|------9----9-11b13---------------------------------|
|-9h11---11-----------------------------------------| x2
|---------------------------------------------------|
|---------------------------------------------------|

|------------------------------|
|------------------------------|
|------9----9~-9h11-11b13-9-11-|
|-9h11---11--------------------|
|------------------------------|
|------------------------------|

|---------------------------------------------------|
|-17-19-19b21r19-19b21r19-17h19-17--19b21r19-17-19~-|
|---------------------------------------------------|
|---------------------------------------------------|
|---------------------------------------------------|
|---------------------------------------------------|

|----------16-17-18-19--------------|
|-19b21-------------19b21r19----19~-|
|----------------------------18-----|
|-----------------------------------|
|-----------------------------------|
|-----------------------------------|

   c#m    A    E   
|-----------------|
|-----------------|
|-------------9-9-|
|-11-11--7-7--9-9-|
|-11-11--7-7--7-7-|
|-9--9---5-5------|

                  |---------------------|
                  |---------------------|
                  |---------------------|
                  |---------------------|
                  |-7ph~-9ph~-7ph~-9ph~-|
                  |---------------------|

   c#m    A        B      G# A    c#m     B       A       G# A 
|------------------------------| |-----------------------------|
|------------------------------| |-----------------------------|
|------------------------------| |-----------------------------|
|-11-11--7-7--9-9-9-9-9-9--6-7-| |-9/11-9-9h11P9-7-6-6h7-6---7-|
|-11-11--7-7--9-9-9-9-9-9--6-7-| |-------------------------9---|
|-9--9---5-5--7-7-7-7-7-7--4-5-| |-----------------------------|

c#m     B       A       G# A    B  E  c#m
|-----------------------------|
|-----------------------------|
|-----------------------------|
|-9/11-9-9h11P9-7-6-6h7-6---7-|
|-------------------------9---|
|-----------------------------|

A            B                C    D     E
Cause Mamma, Mamma I'm Coming hooooooooome

           C    D     E
I'm Coming hooooooooome

           C    D     E
I'm Coming hooooooooome

           C    D     E
I'm Coming hooooooooome
                                                         E
|-12-0---11-0---9-0------0------0-----0------0-----0---|
|------0------0-----0-12---0-10---0-9---0------0-----0-|
|-----------------------------------------11-----9-----|
|------------------------------------------------------|
|------------------------------------------------------|
|------------------------------------------------------|
Comments