Ozzy Osbourne - Mama Im Coming Home Chords & Tabs

 

Mama Im Coming Home Chords & Tabs

Ozzy Osbourne Chords & Tabs

Version: 3 Type: Tab 0 ratings
1 star 2 stars 3 stars 4 stars 5 stars
comments

Mama Im Coming Home Tab

Words and music my Ozzy Osborne and Zakk Wylde
Transcipted by: Justin Bunz

Tuned down 1/2 step

Intro

Gtr.1                Gtr.1&2

E-12---------------|---0-----0-------0-----0-------0-----0------------
B---12-------------|-----0-----0-------0-----0-------0-----0----------
G-----11b-(11)-9---|-9-----8-----8-6-----4-----4-2-----1-----1--------
D------------------|-------------------------------------------4------
A------------------|--------------------------------------------------
E-----------------0|--------------------------------------------------
*Acoustic gtr.       *Gtr.2-12 string acoustic
[ Tab from: http://www.guitartabs.cc/tabs/o/ozzy_osbourne/mama_im_coming_home_tab_ver_3.html ]
E-0-------0-----|---0----0------0----0------0---0-0------0---0-0----|
B---0-------0---|-----0----0------0----0------0-0---0------0-0---0--|
G---------------|-/9----8----8-6----4----4-2----1-----1------1------|
D------2--------|---------------------------------------4----2------|
A---------------|---------------------------------------------------|
E--------------0|--------------------------------------------------0|

This tab is 100% right! You cant get anymore right than this. Its right from the
book!  If you want the whole song send me an email whyarewe@hotmail.com  Im just
to lazy to tab the whole thing right now.

If you like classics I advise you to buy this book "ROCK BALLADS"
Comments