Ozzy Osbourne - Goodbye To Romance Chords & Tabs

 

Goodbye To Romance Chords & Tabs

Ozzy Osbourne Chords & Tabs

Version: 3 Type: Tab 0 ratings
1 star 2 stars 3 stars 4 stars 5 stars
comments

Goodbye To Romance Tab

   
      D             A
|------------------------------------------|
|--3-5-7-8-7-5-7-5-3-5-3-5-2-0-2-3-5-------|
|------------------------------------------|
|------------------------------------------|
|------------------------------------------|
|------------------------------------------|

 D
Yesterday has been and gone
   Bm                            G
tomorrow will I find the sun or will it rain

|------------------------------------------|
|--0-2-3-2-3-2-0-2-3-5---------------------|
|------------------------------------------|
|------------------------------------------|
|------------------------------------------|
|------------------------------------------|

D                          Bm
Everybody's having fun  except me I'm the lonely one
   G
I live in shame

|------------------------------------------|
|--0-2-3-3/7-5-3-5-3-5---------------------|
|------------------------------------------|
|------------------------------------------|
|------------------------------------------|
|------------------------------------------|

CHORUS:
      D     A      Bm      G 
I said Goodbye to romance,
             A     D 
Goodbye to friends
     A     Bm            G
Goodbye to all the past
                     A                      D
I guess that we'll meet, we'll meet in the end

|------2-5-3-2-2-0-------------------------|
|----3-------------3-5-3-5-2/3/2-0-2-3-5---|
|--2---------------------------------------|
|------------------------------------------|
|------------------------------------------|
|------------------------------------------|
[ Tab from: http://www.guitartabs.cc/tabs/o/ozzy_osbourne/goodbye_to_romance_tab_ver_3.html ]
I've been the King, I've been the clown,
still broken wings can't hold me down
I'm free again

|------------------------------------------|
|--0-2-3-2-3-2-0-2-3-2/7-5-----------------|
|------------------------------------------|
|------------------------------------------|
|------------------------------------------|
|------------------------------------------|

The jester with the broken crown
it won't be me this time around to love in vain

|------------------------------------------|
|--0-2-3-3/7-5-3-5-3-5---------------------|
|------------------------------------------|
|------------------------------------------|
|------------------------------------------|
|------------------------------------------|

CHORUS

|------2-5-3-2-2-0-------------------------|
|----3-------------3-5-3-5-2/3/2-0-2-3-5---|
|--2---------------------------------------|
|------------------------------------------|
|------------------------------------------|
|------------------------------------------|

M8:
       Bm                                 G
And I feel the time is right althought I know
that you just might say to me
  D      Bm    A
What ya gonna do
What ya gonna do
          
'Cause I have to take this chance
Goodbye to friends and to romance
And to all of you
And to all of you

SOLO

CHOURS
          D                        Bm                           G 
And the weather's looking fine and I think the sun will shine again,
And I feel  I've cleared my mind all the past is left behind again

CHORUS



NOTA:
algunas partes faltan, los tabs son para tocar con los acrodes, estoy trabajando
con el solo, ni bien lo tenga lo paso, el M8 no esoty segura de que sea asi
salu2

Ozzy Osbourne's official web site: OZZY.COM
Comments