Ozzy Osbourne - Goodbye To Romance Chords & Tabs

 

Goodbye To Romance Chords & Tabs

Ozzy Osbourne Chords & Tabs

Version: 2 Type: Tab 0 ratings
1 star 2 stars 3 stars 4 stars 5 stars
comments

Goodbye To Romance Tab

Ozzy Osbourne - Goodbye to Romance.
Tabbed by Slaytanic Slaughter.
  
             
                 GOODBYE TO ROMANCE     
           Ozzy Osbourne (Blizzard of Ozz)

  Guitar Solo
  
  " ^ " - Hammer On or Pull Off
  " b " - Bend
  " ~ " - Vibrato

                       ~~~  sl.             ~~~~~~
E|-----------------|----------------15^14-12------|
B|-----------------|------------------------------|
G|-----------7-(9)-|--7---(7)/11^14---------------|
D|-------7-9-------|------------------------------|
A|-----------------|------------------------------|
E|-----------------|------------------------------|

    rake                                          ~~~~~
E|------14^15^14------14--------------------14---------14-15-|
B|----15----------17------17^15^14-17b(19)------17-----------|
G|--16-------------------------------------------------------|
D|-----------------------------------------------------------|
A|-----------------------------------------------------------|
E|-----------------------------------------------------------|


E|--17^15^14--14--------------------------14-15^14^15^14-17^15^17^15-19^17^19^17-21^19^21^19-|
B|---------17--17^15^14^15--------14^15^17---------------------------------------------------|
G|------------------------16^14^16-----------------------------------------------------------|
D|-------------------------------------------------------------------------------------------|
A|-------------------------------------------------------------------------------------------|
E|-------------------------------------------------------------------------------------------|

[ Tab from: http://www.guitartabs.cc/tabs/o/ozzy_osbourne/goodbye_to_romance_tab_ver_2.html ]
E|--21b(22)b(21)^19--21^19------19--21b(22)b(21)----|
B|-------------------------22-----------------------|
G|--------------------------------------------------|
D|--------------------------------------------------|
A|--------------------------------------------------|
E|--------------------------------------------------|

                                            ~~~~~~
E|--------------7----------------------------------7-9b(10)-|
B|-----------7-----10--7--8--7----------7-------------------|
G|---9b(11)---------------------9b(11)-----9----------------|
D|----------------------------------------------------------|
A|----------------------------------------------------------|
E|----------------------------------------------------------|

                                       P.M.---|  ~~~~~~~
E|--b(9)^7-----7-----------------------------------------|
B|---------10-----10--8^7-----7-----------------7--------|
G|-------------------------9-----9--7--6--7--9-----------|
D|-------------------------------------------------------|
A|-------------------------------------------------------|
E|-------------------------------------------------------|

E|--9--10--7--9------7-----------------------------------|
B|---------------10-----8--10--7--8-----7----------------|
G|-----------------------------------9-----7--9--6--7----|
D|-------------------------------------------------------|
A|-------------------------------------------------------|
E|-------------------------------------------------------|

     ~~~~  ~~~~                                        sl. ~~~~~~~       sl.
E|--------------------------------14-15-17^15^14-----|------------------------|
B|-----------------------15^17-19----------------17--|--/19-----------(19)\---|
G|--9----11-----14^16-18-----------------------------|--/19-----------(19)\---|
D|---------------------------------------------------|------------------------|
A|---------------------------------------------------|------------------------|
E|---------------------------------------------------|------------------------|


           It`s not too difficult but sounds pretty good
           For comments or questions: lucisferre999@mail.ru






 
:: Ultimate Guitar Archive :: 
http://www.ultimate-guitar.com 

Comments