Ozzy Osbourne - Gets Me Through Chords & Tabs

 

Gets Me Through Chords & Tabs

Ozzy Osbourne Chords & Tabs

Version: 9 Type: Tab 0 ratings
1 star 2 stars 3 stars 4 stars 5 stars
comments

Gets Me Through Tab

                                 GETS ME THROUGH
                          As recorded by Ozzy Osbourne
                       (From the 2001 Album DOWN TO EARTH)

Words and Music by Ozzy Osbourne & Tim Palmer
Transcribed by www.mikesguitarsite.co.uk

 Intro
  Q=74
 4/4
  Gtr I
|-------------------------------------|
|-----------8-7---------------8-7-----|
|-----9---------9-------9---------9---|
|---9---9---------9---9---9---------9-|
|-7-------7---------7-------7---------|
|-0-----------------------------------|


|------------------------------------------|
|-----------8---------------------8-7------|
|------9------11-9---------9----------9----|
|---10---10--------10---10---10---------9--|
|------------------------------------------|
|-8-------------------8---------8----------|


|-------------------------------------|
|-----------8-7---------------8-7-----|
|-----9---------9-------9---------9---|
|---9---9---------9---9---9---------9-|
|-7-------7---------7-------7---------|
|-0-----------------------------------|


                                        T      T
|--------------------------------12----12(24)--------||
|-------------8---------------------11--------11(23)-||
|------9--------11-9----9----------------------------||
|---10---10----------10---8----8---------------------||
|---------------------------10-----------------------||
|-8---------8-----------8----------------------------||


    Gtr II
||--------------------------------|-------------------------------||
||o-------------------------------|------------------------------o||
||--------------------------------|-------------------------------||
||--------------------------------|--------------------------0h2--||
||o--------4b4.5------4b4.5-------|--------4b4.5---------0h2-----o||
||--0-0--0-2b2.5-0--0-2b2.5--0--0-|-0-0--0-2b2.5-0--0--0----------||


   Verse
    $
||------------------------|------------------------|
||o-----------------------|------------------------|
||------------------------|------------------------|
||------------------------|------------------------|
||o-2-2--2-2-2--2-2--2--2-|-2-2--2-2-2--2-2--2--2--|
||--0-0--0-3-0--0-3--0--0-|-0-0--0-3-0--0-3--0--0--|


                                        ~
|-----------------------|-------------------------|
|-----------------------|-------------------------|
|-----------------------|-------------------------|
|-----------------------|-------------------------|
|-2-2--2-2-2--2-2--2--2-|-2-2--2-2-2--2---x-x-x-x-|
|-0-0--0-3-0--0-3--0--0-|-0-0--0-3-0--0-3-x-x-x-x-|
|
|                       Gtr III
|-----------------------|-------------------------|
|-----------------------|-----------------0-0-0-0-|
|-----------------------|-------------------------|
|-----------------------|-------------------------|
|-----------------------|-------------------------|
|-----------------------|-------------------------|


|---------------------------------|---------------------------------|
|---------------------------------|---------------------------------|
|---------------------------------|---------------------------------|
|---------------------------------|---------------------------------|
|-2-2---2-2-----2---2-2-----2---2-|-2-2---2-2-----2---2-2-----2---2-|
|-0-0---0-3-----0---0-3-----0---0-|-0-0---0-3-----0---0-3-----0---0-|
|
|---------0-0-------------0-0-----|---------0-0-------------0-0-----|
|-0-0-0-0-----0-0-0-0-0-0-----0-0-|-------------0-0-------------0-0-|
|---------------------------------|-3-3-3-3---------3-3-3-3---------|
|---------------------------------|---------------------------------|
|---------------------------------|---------------------------------|
|---------------------------------|---------------------------------|


                           To Coda
                                                        ~~~~~~~~
|---------------------------------|-----------------------------------||
|---------------------------------|-----------------------------------||
|---------------------------------|-----------------------------------||
|---------------------------------|-----------------------------------||
|-2-2---2-2-----2---2-2-----2---2-|-2-2---2-2-----2---2---------------||
|-0-0---0-3-----0---0-3-----0---0-|-0-0---0-3-----0---0-3---(3)-------||
|
|---------0-0-------------0-0-----|---------0-0--------------0--0-----||
|-0-0-0-0-----0-0-0-0-0-0-----0-0-|-------------0-0---------------0-0-||
|---------------------------------|-3-3-3-3---------3-3-3-3-----------||
|---------------------------------|-----------------------------------||
|---------------------------------|-----------------------------------||
|---------------------------------|-----------------------------------||


 Interlude
|-------------------------------|-------------------------------|
|-------------------------------|-------------------------------|
|-------------------------------|-------------------------------|
|-------------------------------|--------------------------0h2--|
|--------4b4.5------4b4.5-------|--------4b4.5---------0h2------|
|-0-0--0-2b2.5-0--0-2b2.5--0--0-|-0-0--0-2b2.5-0--0--0----------|


|-------------------------------|--------------------------------||
|-------------------------------|-------------------------------o||
|-------------------------------|--------------------------------||
|-------------------------------|--------------------------0h2---||
|--------4b4.5------4b4.5-------|--------4b4.5---------0h2------o||
|-0-0--0-2b2.5-0--0-2b2.5--0--0-|-0-0--0-2b2.5-0--0--0-----------||


 Bridge
  Gtr II
|-----------------|-----------------|-------------------|---------------------|
|-5-------7---8---|-5-------7---8---|-----------7---8---|-----------7---8-----|
|-----------------|-----------------|-3s5---------------|-3s5-----------------|
|-2-------4---5---|-2-------4---5---|-----------4---5---|-----------4---5-----|
|-----------------|-----------------|-1s3---------------|-1s3-----------------|
|-----------------|-----------------|-------------------|---------------------|
|
| Gtr III
|-0---0---0---0---|-0---0---0---0---|-------------------|---------------------|
|---0---0---0---0-|---0---0---0---0-|---5---5---5---5---|---5---5---5---5-----|
|-----------------|-----------------|-----3---3---3---3-|-----3---3---3---3---|
|-----------------|-----------------|-------------------|---------------------|
|-----------------|-----------------|-------------------|---------------------|
|-----------------|-----------------|-------------------|---------------------|


|-----------------|-----------------|
|-5-------7---8---|-5-------7---8---|
|-----------------|-----------------|
|-2-------4---5---|-2-------4---5---|
|-----------------|-----------------|
|-----------------|-----------------|
|
|-0---0---0---0---|-0---0---0---0---|
|---0---0---0---0-|---0---0---0---0-|
|-----------------|-----------------|
|-----------------|-----------------|
|-----------------|-----------------|
|-----------------|-----------------|


|-------------------|---------------------------------||
|-----------7---8---|---------------------------------||
|-3s5---------------|-4---------------7---------------||
|-----------4---5---|---------------------------------||
|-1s3---------------|-2---------------5---------------||
|-------------------|---------------------------------||
|
|-------------------|---------------------------------||
|---5---5---5---5---|---------------------------------||
|-----3---3---3---3-|-4-4-4-4-4-4-4-4-7-7-7-7-7-7-7-7-||
|-------------------|-4-4-4-4-4-4-4-4-7-7-7-7-7-7-7-7-||
|-------------------|-2-2-2-2-2-2-2-2-5-5-5-5-5-5-5-5-||
|-------------------|---------------------------------||


 Guitar Solo
  Gtr IV
  ~
|--------------------------------------------------------|
|--------------------------------------------------------|
|-9---------------11b12==(11)r-----11b12==(11)---11r(11)-|
|--------------------------------------------------------|
|--------------------------------------------------------|
|--------------------------------------------------------|
|
| Gtrs II, III
|   PM|     PM|            PM--|               PM|
|--------------------------------------------------------|
|--------------------------------------------------------|
|-9-----9-9-----9--9-------------9----------9---------9--|
|-9-----9-9-----9--9-------------9----------9---------9--|
|-7-----7-7-----7--7-------------7----------7---------7--|
|---0-0-----0-0------------0---0---------------0--0------|


  ~~~~~~~~~~~~~~~~~~~~
|-------------------------------------------|
|-------------------------------------------|
|-9---------------/14----------12----11-----|
|-------------------------------------------|
|-------------------------------------------|
|-------------------------------------------|
|
|   PM|     PM|
|-------------------------------------------|
|-------------------------------------------|
|-9-----9-9-----9--12-12-12-12-12-12-12-12--|
|-9-----9-9-----9--12-12-12-12-12-12-12-12--|
|-7-----7-7-----7--10-10-10-10-10-10-10-10--|
|---0-0-----0-0-----------------------------|


           ~~~~~~~                ~~~~
|-------------------------------------------------------|
|-------------------------------------------------------|
|-11---12----------------12b14==(12)-------12-12r(12)---|
|---------10-(10)-----10--------------------------------|
|-------------------------------------------------------|
|-------------------------------------------------------|
|
|    PM|          PM|                PM|       PM|
|-------------------------------------------------------|
|-------------------------------------------------------|
|--5-------5---5-------5----------5------5--5---------5-|
|--5-------5---5-------5----------5------5--5---------5-|
|--3-3--3--3---3--3-3--3----------3--3-3-3--3--3---3--3-|
|-------------------------------------------------------|


           ~~~~~~~       PM------------------------------------------|
|-------------------------------------------------------------------------|
|-------------------------------------------------------------------------|
|-11---12-----------------------------------------------------------------|
|---------10-(10)---------------------------------------------------------|
|-----------------------12-11----10-12-11----10---------------------------|
|-----------------------------------------------12-11----10-12-11----10---|
|
|    PM|          PM|
|-------------------------------------------------------------------------|
|-------------------------------------------------------------------------|
|--5-------5---5------5-12----12----12----12----12----12----12----12------|
|--5-------5---5------5-12----12----12----12----12----12----12----12------|
|--3-3--3--3---3--3-3-3-10----10----10----10----10----10----10----10------|
|-------------------------------------------------------------------------|


                      T    T        T      T    T        T    T    T    T      T    T
|-------------------------------------------------------------------------------------------|
|-------------------------------------------------------------------------------------------|
|-7tr9---------------11p7-11p7h==9-11p7---11p7-11p9p==7-11p9-12p7-12p9-12p7h9-12p7-12p9p7---|
|-------------------------------------------------------------------------------------------|
|-------------------------------------------------------------------------------------------|
|-------------------------------------------------------------------------------------------|
|
|      PM|     PM|             PM-------|                            PM-----|
|-------------------------------------------------------------------------------------------|
|-------------------------------------------------------------------------------------------|
|-9--------9-9-----9--9-----------------------------9---------9---------------------9-------|
|-9--------9-9-----9--9-----------------------------9---------9---------------------9-------|
|-7--------7-7-----7--7-----------------------------7---------7---------------------7-------|
|------0-0-----0-0-------------0--------0----------------------------0------0---------------|


                      T    T       T       T    T         T         T         T    T
|-------------------------------------------------------------------------------------------|
|-7tr9---------------14p9-14p===7-14p9----14p9-14p===7h9-12p7h9----12p7h9----11p7-10p===9p7-|
|-------------------------------------------------------------------------------------------|
|-------------------------------------------------------------------------------------------|
|-------------------------------------------------------------------------------------------|
|-------------------------------------------------------------------------------------------|
|
|      PM|     PM|
|-------------------------------------------------------------------------------------------|
|-------------------------------------------------------------------------------------------|
|-9--------9-9-----9-12------12--------12---------12-----12-----12--------12---------12-----|
|-9--------9-9-----9-12------12--------12---------12-----12-----12--------12---------12-----|
|-7--------7-7-----7-10------10--------10---------10-----10-----10--------10---------10-----|
|------0-0-----0-0--------------------------------------------------------------------------|


               ~~~~~~~~~~~~~~~~~~~
|-----------------------------------12------15pb17==(15)r-------|
|-----15b17==(15)-----------(15)r------15-----------------------|
|-----------------------------------------x---------------------|
|---------------------------------------------------------------|
|---------------------------------------------------------------|
|---------------------------------------------------------------|
|
|   PM-------|        PM|         PM|                     PM|
|---------------------------------------------------------------|
|---------------------------------------------------------------|
|-5---------------5-5-----5---5-----------5-----------5-------5-|
|-5---------------5-5-----5---5-----------5-----------5-------5-|
|-3-3----------3--3-3-3-3-3---3---3--3----3-----------3---3-3-3-|
|---------------------------------------------------------------|

[ Tab from: http://www.guitartabs.cc/tabs/o/ozzy_osbourne/gets_me_through_tab_ver_9.html ]
                                                      ~~~~~
|-15pb17-15pb16-15pb17-15pb16-15pb17r(15)-12-------------------------------------------------------------|
|--------------------------------------------15b17==(15)r---15p12----------------------------------------|
|-----------------------------------------------------------------14b16==(14)r(14)p12-14b16==(14)r-------|
|--------------------------------------------------------------------------------------------------------|
|--------------------------------------------------------------------------------------------------------|
|--------------------------------------------------------------------------------------------------x\----|
|
|         PM----|                      PM-|
|--------------------------------------------------------------------------------------------------------|
|--------------------------------------------------------------------------------------------------------|
|--5--------------------5------5--------------5-------4---4--4-------------4----7--------------7---7--7--|
|--5--------------------5------5--------------5-------4---4--4-------------4----7--------------7---7--7--|
|--3------3------3------3------3-------3---3--3-------2---2--2-------------2----5--------------5---5--5--|
|--------------------------------------------------------------------------------------------------------|


                              T        T        T        T        T
|-------------------------7--12p7p6h7-12p7p6h7-12p7p6h7-12p7p6h7-12--|
|--------------------------------------------------------------------|
|--------------------------------------------------------------------|
|---7b8==(7)---(7)r==(7)---------------------------------------------|
|--------------------------------------------------------------------|
|--------------------------------------------------------------------|
|
|--------------------------------------------------------------------|
|--------------------------------------------------------------------|
|--------------------------------------------------------------------|
|-7----------6-(6)----5--(5)-------------5---------------------------|
|-7----------6-(6)----5--(5)-------------5---------------------------|
|-5-------0--4-(4)-0--3--(3)-------------3---------------------------|


                             ~~~~~~~~~~
|--------------------------8-8-----(8)-------|
|-------7b9==(7)---(7)r(7)-------------------|
|---7p5--------------------------------------|
|--------------------------------------------|
|--------------------------------------------|
|--------------------------------------------|
|
|                          PM------------|
|--------------------------------------------|
|--------------------------------------------|
|--------------------------------------------|
|-7--------------6-(6)--5--------------------|
|-7--------------6-(6)--5--------------------|
|-5--------------4-(4)--3--3-3-3-3--3--3-3---|


                                                           5/4
                                                 ~~~~~~~~~~~~~~~~~
|------------------------------------------------9---(9)--|--(9)--------------||
|-------5---------4--(4)--------3-------12b14==(12)-(12)--|-(12)r-------------||
|-7b9==(7)r-6b8==(6)-(6)r-5b7==(5)r-----------------------|-------------------||
|---------------------------------------------------------|-------------------||
|---------------------------------------------------------|-------------------||
|---------------------------------------------------------|---------------x\--||
|
|---------------------------------------------------------|-------------------||
|---------------------------------------------------------|-------------------||
|---------------------------------------------------------|-------------------||
|-------7---------6--(6)--------5---(5)----------4---(4)--|--(4)---------(4)--||
|-------7---------6--(6)--------5---(5)----------4---(4)--|--(4)---------(4)--||
|-------5---------4--(4)--------3---(3)----------2---(2)--|--(2)---------(2)--||


                                                   D.S. al Coda
   4/4
    Gtr II
||--------------------------------|-------------------------------||
||o-------------------------------|------------------------------o||
||--------------------------------|-------------------------------||
||--------------------------------|--------------------------0h2--||
||o--------4b4.5------4b4.5-------|--------4b4.5---------0h2-----o||
||--0-0--0-2b2.5-0--0-2b2.5--0--0-|-0-0--0-2b2.5-0--0--0----------||


  &
  Gtr II
|-----------------------|---------------||
|-----------------------|---------------||
|-----------------------|-4---7-(7)--7--||
|-----------------------|-4---7-(7)--7--||
|-2-2--2-2-2--2-2--2--2-|-2---5-(5)--5--||
|-0-0--0-3-0--0-3--0--0-|---------------||


   Outro
                                                                  4x
||--------------------------------|-------------------------------||
||o-------------------------------|------------------------------o||
||--------------------------------|-------------------------------||
||--------------------------------|--------------------------0h2--||
||o--------4b4.5------4b4.5-------|--------4b4.5---------0h2-----o||
||--0-0--0-2b2.5-0--0-2b2.5--0--0-|-0-0--0-2b2.5-0--0--0----------||


    Gtr IV
||----------------------------------|------------------------------------||
||o---------------------------------|-----------------------------------o||
||---------12----------12-----------|-12----------12---------------------||
||--x-x--x-12-----x--x-12------x--x-|-12-----x--x-12------x--x-x-x-x-x---||
||o-x-x--x--------x--x---------x--x-|--------x--x---------x--x-x-x-x-x--o||
||----------------------------------|------------------------------------||
|
|   Gtr II
||----------------------------------|------------------------------------||
||o---------------------------------|-----------------------------------o||
||----------------------------------|------------------------------------||
||----------------------------------|------------------------------0h2---||
||o---------4b4.5-------4b4.5-------|--4b4.5-------4b4.5-------0h2------o||
||--0-0--0--2b2.5-0--0--2b2.5--0--0-|--2b2.5-0--0--2b2.5--0--0-----------||


             ~~~~~                       ~~~~~
|--------------------------------------------------------------------|
|------------------12-----15-12----------------------12-15-12--------|
|-14b16====(14)r----------------14b16==(14)r------------------14b15==|
|--------------------------------------------------------------------|
|--------------------------------------------------------------------|
|--------------------------------------------------------------------|
|
|--------------------------------------------------------------------|
|--------------------------------------------------------------------|
|--------------------------------------------------------------------|
|--------------------------------------------------------------------|
|-------------------4b4.5----------------------4b4.5-----------------|
|--0-----0-------0--2b2.5--------0-----------0-2b2.5-----0-----0-----|


                                           ~~~~~~~~~
|---------------------------12-----------------------------------|
|--------------------12--------12-15b17==(15)-(15)r--------------|
|-(14)b16====(14)r-----------------------------------------------|
|------------------------------------------------------------x-x-|
|----------------------------------------------------------------|
|----------------------------------------------------------------|
|
|----------------------------------------------------------------|
|----------------------------------------------------------------|
|----------------------------------------------------------------|
|------------------------------------------------------------0h2-|
|---------------------4b4.5------------------------------0h2-----|
|---0------0-------0--2b2.5----------------0--------0--0---------|


             ~~~~~                       ~~~~~
|--------------------------------------------------------------------|
|------------------12-----15-12----------------------12-15-12--------|
|-14b16====(14)r----------------14b16==(14)r------------------14b16==|
|--------------------------------------------------------------------|
|--------------------------------------------------------------------|
|--------------------------------------------------------------------|
|
|--------------------------------------------------------------------|
|--------------------------------------------------------------------|
|--------------------------------------------------------------------|
|--------------------------------------------------------------------|
|-------------------4b4.5----------------------4b4.5-----------------|
|--0-----0-------0--2b2.5--------0-----------0-2b2.5-----0-----0-----|


    ~~~~~                                                 ~~~
|-------------------12----15b17==(15)-(15)b18====(15)r---15-------|
|------------12--------12-----------------------------------------|
|-(14)r-----------------------------------------------------------|
|-----------------------------------------------------------------|
|-----------------------------------------------------------------|
|-----------------------------------------------------------------|
|
|-----------------------------------------------------------------|
|-----------------------------------------------------------------|
|-----------------------------------------------------------------|
|-------------------------------------------------------------0h2-|
|-------------4b4.5---------------------------------------0h2-----|
|---0---0--0--2b2.5----------------0-----------0-------0----------|


           ~~~~~~~~~~~~~~~~                       ~~~~~~~~
|--------------------------12-------------------------------------12----------------------|
|-15b17==(15)------(15)r------15p12-15b16==(15)r(15)-(15)------------15p12-15pb16r(15)----|
|-----------------------------------------------------------------------------------------|
|-----------------------------------------------------------------------------------------|
|-----------------------------------------------------------------------------------------|
|-----------------------------------------------------------------------------------------|
|
|-----------------------------------------------------------------------------------------|
|-----------------------------------------------------------------------------------------|
|-----------------------------------------------------------------------------------------|
|-----------------------------------------------------------------------------------------|
|--------------------4b4.5----------------------------------4b4.5-------------------------|
|----------0--0--0---2b2.5------------------------0-------0-2b2.5-------------------0---0-|


|-12------------------------12------------------------12--------------------12--------------------12--------------------12---------------------------------------12----12--------------12-|
|----15-12-15b17==(15)r(15)----15p12-----15b17==(15)r----15p12-15b17==(15)r----15p12-15b17==(15)r----15p12-15b17==(15)r----15-12-15b17==(15)r-15-12-15b17==(15)r----15----15b17==(15)r----|
|-----------------------------------------------------------------------------------------------------------------------------------------------------------------------------------------|
|-----------------------------------------------------------------------------------------------------------------------------------------------------------------------------------------|
|-----------------------------------------------------------------------------------------------------------------------------------------------------------------------------------------|
|-----------------------------------------------------------------------------------------------------------------------------------------------------------------------------------------|
|
|-----------------------------------------------------------------------------------------------------------------------------------------------------------------------------------------|
|-----------------------------------------------------------------------------------------------------------------------------------------------------------------------------------------|
|-----------------------------------------------------------------------------------------------------------------------------------------------------------------------------------------|
|-----------------------------------------------------------------------------------------------------------------------------------------------------------------0h===============2------|
|----------------------------------4b4.5--------------------------------------------------------------------------------------------------0h======2---------------------------------------|
|--0----------------0--------0-----2b2.5--------------------------------0--------------------------0------------------------0-------------------------------------------------------------|


                                                             ~~~~~
|-------15---12-------15p12---17p12-15p====12--------------------12-----------------------------12----------12-------12----------12---------|
|-15p12---------15p12-------------------------15p12-15b17==(15)r----15p12----12-16-12----12--------12----12----12-12----12----12----12-(12)-|
|-------------------------------------------------------------------------14----------15--------------15-------------------15---------------|
|-------------------------------------------------------------------------------------------------------------------------------------------|
|-------------------------------------------------------------------------------------------------------------------------------------------|
|-------------------------------------------------------------------------------------------------------------------------------------------|
|
|-------------------------------------------------------------------------------------------------------------------------------------------|
|-------------------------------------------------------------------------------------------------------------------------------------------|
|-------------------------------------------------------------------------------------------------------------------------------------------|
|-------------------------------------------------------------------------------------------------------------------------------------------|
|------------------------------------4b4.5------------------------------------------------4b4.5---------------------------------------------|
|--0-------0----------------0--------2b2.5------------------------0--------------0--------2b2.5--------------------------0---------------0--|


                                                                                 ~~~~~
|-------------------------------------------------14---------------------------------------|
|-12-----------------------15b18==(15)r===(15)p12----13------15----------------------------|
|----14b16==(14)r(14)p12----------------------------------12----13------14b16==(14)r-------|
|--------------------------------------------------------------------12--------------------|
|------------------------------------------------------------------------------------------|
|------------------------------------------------------------------------------------------|
|
|------------------------------------------------------------------------------------------|
|------------------------------------------------------------------------------------------|
|------------------------------------------------------------------------------------------|
|--------------------------------------------------------------------------------------0h2-|
|-----------------------------------4b4.5----------------------------------------0h==2-----|
|--0----------0----------0----------2b2.5-------0-------0----------0-----------------------|


   TP      TP       TP         TP
|-16------16-------16---------16--------*|
|-15------15-------15---------15--------*|
|---------------------------------------*|
|---------------------------------------*|
|---------------------------------------*|
|---------------------------------------*|
|
|---------------------------------------*|
|---------------------------------------*|
|---------------------------------------*|
|---------------------------------------*|
|----------4b4.5--------4b4.5-----------*|
|--0-0--0--2b2.5-0----0-2b2.5----0--0---*|



***************************************************************************************
* Generated using Power Tab Editor by Brad Larsen - http://powertab.guitarnetwork.org *
***************************************************************************************
Comments