Ozzy Osbourne - Dee Chords & Tabs

 

Dee Chords & Tabs

Ozzy Osbourne Chords & Tabs

Version: 5 Type: Tab 0 ratings
1 star 2 stars 3 stars 4 stars 5 stars
comments

Dee Tab

   
Dee - Randy Rhoads (1956-1982)

TablEdited by Donald Belanger - don@kscind.com - Feb 2002

The song was first released in 1981 and then two studio outtake versions
were released on a posthumous album in 1987. 

Tuning : E A D G B E 	Time Signature: 3/4


 |       |       |        |       |       |        |       |       |
|------------------------|7---------------7-------|5-----------------------|
|------------------------|----------7h-8----------|------------------------|
|------------------------|7-------7---------------|------------------------|
|------------------------|------------------------|0-----------------------|
|------------------------|10----------------------|5-----------------------|
|------------------------|------------------------|------------------------|

 |       |       |        |       |       |        |       |       |
|7{----------------------|7-----------7-----------|10----------10----------|
|7{----------------------|--------7-------7-------|--------8-------8-------|
|7{----------------------|----7---------------7---|----7---------------7---|
|7{----------------------|9-----------------------|9-----------------------|
|------------------------|------------------------|------------------------|
|------------------------|------------------------|------------------------|

 |       |       |        |       |       |        |       |       |
|----------------12------|12----------------------|7---------------7-------|
|------------10----------|------------------------|----------7h-8----------|
|--------9---------------|9-----------------------|7-------7---------------|
|9/--11------------------|------------------------|------------------------|
|------------------------|------------------------|10----------------------|
|------------------------|------------------------|------------------------|

 |       |       |        |       |       |        |       |       |
|5-----------------------|3---------------3-------|------------------------|
|------------------------|--------2---------------|7-------5-------3-------|
|------------------------|------------------------|------------------------|
|0-----------------------|2-----------------------|------------------------|
|5-----------------------|------------------------|5-------4-------2-------|
|------------------------|------------------------|------------------------|

 |       |       |        |       |       |        |       |       |
|0---------------0-------|------------------------|------------------------|
|--------0---------------|5p--3p--2-------3-------|3---------------3-------|
|------------------------|------------------------|------------2-------2---|
|------------------------|------------------------|--------0---------------|
|------------------------|0-----------------------|------------------------|
|3-----------------------|------------------------|2-----------------------|

 |       |       |        |       |       |        |       |       |
|0---------------2h3p2p0-|2---------------2-------|----------------0---2---|
|--------3---------------|------------0-------0---|------------------------|
|------------------------|--------2---------------|------------------------|
|------------------------|1-----------------------|------------------------|
|------------------------|------------------------|2-----------------------|
|------------------------|------------------------|----------------3---2---|

 |       |       |        |       |       |        |       |       |
|3-----------------------|3p--2---2p--0-------0---|------------------------|
|------------0-----------|----------------3-------|2---------------3-------|
|--------0-------0-------|------------------------|--------0---------------|
|----2-------------------|------------------------|------------------------|
|------------------------|------------------------|0-----------------------|
|0-----------------------|0-------4---------------|------------------------|

 |       |       |        |       |       |        |       |       |
|12{---------------------|------------------------|--------2---3---5h7p5---|
|12{---------------------|------------------------|--------3---5-----------|
|12{---------------------|--2h4p2p0---------------|------------------------|
|12{---------------------|----------4p2p0---------|0-----------------------|
|------------------------|----------------4p2p0---|------------------------|
|------------------------|------------------------|------------------------|

 |       |       |        |       |       |        |       |       |
|------------0-----------|----2---3---5---7h9p7---|------------------------|
|3---------------3-------|----3---5---7-----------|2---------------3-------|
|--------0---------------|------------------------|--------0---------------|
|----0-------------------|0-----------------------|2-----------------------|
|2-----------------------|------------------------|0-----------------------|
|------------------------|------------------------|------------------------|

 |       |       |        |       |       |        |       |       |
|5p--3---3p--2---2p--0---|2p--0-------0-----------|----0---------------0---|
|------------------------|--------3-------5-------|3-------2p--0---3-------|
|------------------------|------------------------|------------------------|
|0-----------------------|------------------------|------------------------|
|------------------------|4-----------------------|2-----------------------|
|------------------------|------------------------|------------------------|

 |       |       |        |       |       |        |       |       |
|------------------------|------------------------|--------3p------2-------|
|2---------------3-------|3-----------------------|------------------------|
|--------0---------------|--------2---------------|------------------------|
|------------------------|----------------0-------|------------------------|
|0-----------------------|------------------------|------------------------|
|------------------------|2-----------------------|2-------0---------------|
[ Tab from: http://www.guitartabs.cc/tabs/o/ozzy_osbourne/dee_tab_ver_5.html ]
 |       |       |        |       |       |        |       |       |
|2p------0---------------|7---------------7-------|5-----------------------|
|------------------------|----------7h-8----------|------------------------|
|------------------------|7-------7---------------|------------------------|
|------------------------|------------------------|0-----------------------|
|------------------------|10----------------------|5-----------------------|
|4-----------------------|------------------------|------------------------|

 |       |       |        |       |       |        |       |       |
|7{----------------------|7-----------7-----------|10----------10----------|
|7{----------------------|--------7-------7-------|--------8-------8-------|
|7{----------------------|----7---------------7---|----7---------------7---|
|7{----------------------|9-----------------------|9-----------------------|
|------------------------|------------------------|------------------------|
|------------------------|------------------------|------------------------|

 |       |       |        |       |       |        |       |       |
|----------------12------|12----------------------|7---------------7-------|
|------------10----------|------------------------|----------7h-8----------|
|--------9---------------|9-----------------------|7-------7---------------|
|9/--11------------------|------------------------|------------------------|
|------------------------|------------------------|10----------------------|
|------------------------|------------------------|------------------------|

 |       |       |        |       |       |        |       |       |
|5-----------------------|3---------------3-------|------------------------|
|------------------------|--------2---------------|7-------5-------3-------|
|------------------------|------------------------|------------------------|
|0-----------------------|2-----------------------|------------------------|
|5-----------------------|------------------------|5-------4-------2-------|
|------------------------|------------------------|------------------------|

 |       |       |        |       |       |        |       |       |
|0---------------0-------|------------------------|------------------------|
|--------0---------------|5p--3p--2-------3-------|3---------------3-------|
|------------------------|------------------------|------------2-------2---|
|------------------------|------------------------|--------0---------------|
|------------------------|0-----------------------|------------------------|
|3-----------------------|------------------------|2-----------------------|

 |       |       |        |       |       |        |       |       |
|0---------------2h3p2p0-|2---------------2-------|----------------0---2---|
|--------3---------------|------------0-------0---|------------------------|
|------------------------|--------2---------------|------------------------|
|------------------------|1-----------------------|------------------------|
|------------------------|------------------------|2-----------------------|
|------------------------|------------------------|----------------3---2---|

 |       |       |        |       |       |        |       |       |
|3-----------------------|3p--2---2p--0-------0---|------------------------|
|------------0-----------|----------------3-------|2---------------3-------|
|--------0-------0-------|------------------------|--------0---------------|
|----2-------------------|------------------------|------------------------|
|------------------------|------------------------|0-----------------------|
|0-----------------------|0-------4---------------|------------------------|

 |       |       |        |       |       |        |       |       |
|12{---------------------|------------------------|--------2---3---5h7p5---|
|12{---------------------|------------------------|--------3---5-----------|
|12{---------------------|--2h4p2p0---------------|------------------------|
|12{---------------------|----------4p2p0---------|0-----------------------|
|------------------------|----------------4p2p0---|------------------------|
|------------------------|------------------------|------------------------|

 |       |       |        |       |       |        |       |       |
|------------0-----------|----2---3---5---7h9p7---|------------------------|
|3---------------3-------|----3---5---7-----------|2---------------3-------|
|--------0---------------|------------------------|--------0---------------|
|----0-------------------|0-----------------------|2-----------------------|
|2-----------------------|------------------------|0-----------------------|
|------------------------|------------------------|------------------------|

 |       |       |        |       |       |        |       |       |
|5p--3---3p--2---2p--0---|2p--0-------0-----------|----0---------------0---|
|------------------------|--------3-------5-------|3-------2p--0---3-------|
|------------------------|------------------------|------------------------|
|0-----------------------|------------------------|------------------------|
|------------------------|4-----------------------|2-----------------------|
|------------------------|------------------------|------------------------|

 |       |       |        |       |       |        |       |       |
|------------------------|------------------------|--------3p------2-------|
|2---------------3-------|3-----------------------|------------------------|
|--------0---------------|--------2---------------|------------------------|
|------------------------|----------------0-------|------------------------|
|0-----------------------|------------------------|------------------------|
|------------------------|2-----------------------|2-------0---------------|

 |       |       |        |       |       |
|2p------0---------------|7{---------------------||
|------------------------|7{---------------------||
|------------------------|7{---------------------||
|------------------------|7{---------------------||
|------------------------|-----------------------||
|4-----------------------|-----------------------||
Comments