Ozzy Osbourne - Crazy Train Chords & Tabs

 

Crazy Train Chords & Tabs

Ozzy Osbourne Chords & Tabs

Version: 5 Type: Tab 0 ratings
1 star 2 stars 3 stars 4 stars 5 stars
comments

Crazy Train Tab

Intro
|----------------------------------------------------------|
|----------------------------------------------------------|
|-------------------------------77-------------------------|         2x
|--44----77----22----44----77----22----44------------------|
|--44----77----22----44----55----22----44------------------|     I done it in Power chords 
|--22----55----00----22-----------00----22-----------------|     Because the Original sounds
                                                                                           to be done on a base, if                                                                                                                       you want you can just use                                                                                                                   the top string of  the power chord.
Pre-Verse
|------------------------------------------|             |----------------------------|
|------------------------------------------|             |----------------------------|
|------4-0-5-0-4-0-2-0---0-2-0-------------|   3x Then   |-----4-0-5-0-4-0-2----------|
|--22---------------------4---------4-0----|             |-22-------------------4-0---| 
|------------------------------------------|             |----------------------------|
|------------------------------------------|             |----------------------------|

Verse
|--5----------------------------------|
|--5-------5--------3--------3--------|
|--6-------4--------2--------3--------|   8x
|--7-------6--------4--------3--------|
|--7----------------------------------|
|-------------------------------------|

verse completer                                                 I'm go-in' off the ra......
|--------------------------------------------|    |-------------------------------------|
|--------------------------------------------|    |-------------------------------------|
|--------------------------------------------|    |---2---1-----------------------2---1-|
|--4-4-4---6---7---4-----4-4-4---6---7---4---|    |---2---2---4-4-4---6---7----2--2-----|
|--4-4-4---6---7---4-----4-4-4---6---7---4---|    |-------2---4-4-4---6---7-------2-----|
|--2-0-2---4---5---2-----2-0-2---4---5---2---|    |-----------2-0-2---4---5-------------|

Now back to the verse.

Verse 2
|--5----------------------------------|
|--5-------5--------3--------3--------|
|--6-------4--------2--------3--------|         10x
|--7-------6--------4--------3--------|
|--7----------------------------------|
|-------------------------------------|
[ Tab from: http://www.guitartabs.cc/tabs/o/ozzy_osbourne/crazy_train_tab_ver_5.html ]
Comments