Ozzy Osbourne - Crazy Train Chords & Tabs

 

Crazy Train Chords & Tabs

Ozzy Osbourne Chords & Tabs

Version: 1 Type: Tab 5 ratings
1 star 2 stars 3 stars 4 stars 5 stars
comments

Crazy Train Tab

   
 /  slide up
 \  slide down
 h  hammer-on
 p  pull-off
 ~  vibrato
 +  harmonic
 x  Mute note
 ps Pick Slide
 a+ Artificial Harmonic
 qrtb Quarter Bend
 HB Half Bend 
 FB Full Bend
 T  Tapped Note Tap with your picking hand



* Microphonic Fdbk., not caused by string vibrartion

Riff:A

e|----------------------------------------------
B|----------------------------------------------
G|----------------------------------------------
D|----------------------------------------------
A|---------4---5---4---2--------2---------------
E|-PS--2-2---2---2---2---5-4-5----5-4-0---------

Repeat x2

                      Rhythem Figure 1 played x9
                      Open A's are Palm Muted 

e|------------------|----------------------------
B|------------------|--------5---------5---------
G|------------------|--------6---------4---------
D|------------------|--------7---------6---------
A|----4---5---4---2-|0--0-0----0-0-0-0---0-0-0-0-
E|2-2---2---2-------|----------------------------



e|-----------------------------------------------
B|-3----------2----2-----------------------------
G|-2----------2----2-----------------------------
D|-4----------2----2-----------------------------
A|---0-0-0-0--0----0-----------------------------
E|--------------3b-------------------------------

Played only in second time

e|-----------------------------------------------
B|-------5---------5-----------2-----^-----------
G|-------6---------4-----------2---4-2-0---^-----
D|-------7---------6-----------2---------4-2-0---
A|0--0-0----0-0-0-0---0-0-0-0--0-----------------
E|-----------------------------------------------



e|------|--------------------------|----------^--
B|------|--------5----------2----2-|-----5\--3/5-
G|------|--------6----------2----2-|-----6\--2/4-
D|--^---|--------7----------2----2-|-----7\--4/6-
A|4-2-0-|-0--0-0---0-0-0-0--0----0-|---0---------
E|------|---------------------3b---|-x-----------

*Dive bomb Harmonics and then bring back, this is done quickly
                                      w/bar
e|-----------------------------------------------
B|-----3----2------------------------------------
G|-----2----2-----------------7--7--(7)--(7)-----
D|-----0----2-----------------5-7----------------
A|----------0-----4---4---4---5------------------
E|-0-2--2-4----ps-2-0-2---2-0--------------------



e|-----------------------------------------------
B|--------------------3--------------------------
G|--------------------2------------2--2----------
D|--------------------0---0-0--^---2--2----------
A|-4---4--4-------^-----------4\2--0--0----------
E|-2-0-2--2---0--2-0--------------------4--2-----



e|-----------------------2--^---^----------------
B|---------------------2---5-2-3-2---2---^-----2-
G|-----------------4fb-------------5---5-4-2-4---
D|-2--2------------------------------------------
A|-2--2--------0---------------------------------
E|-0--0---0--4-----------------------------------



e|--------------------------------------0--------
B|--------------------------------------0--------
G|4--------------------------2----------1--------
D|--2--2---^-^-^-^-^-^-^-^---2----------2--------
A|---4--4-3-2-3-2-3-2-3-2-0--0----------2--------
E|---------------------------------4-2--0-4--4--0

*1.9 and 1.6 artificial Harmonics are located between the 1st and 2nd fret

e|-----------------------------------------------
B|-----------------------------------------------
G|-------------------2---------------------------
D|-------------------2------2--------------------
A|-4---4-1.9---------0------2-------4---4-----1.6
E|-2-0-2----1.9--2-4---4-2--0--2-4--2-0-2-1.9----

                      Rhythem Figure 1 played x8
                      Open A's are Palm Muted 


e|-------0---------|-----------------7-----------
B|----3--0---------|--------5--------5---------3-
G|----2--1---------|--------6--------4---------2-
D|----0--2---------|--------7--------6---------4-
A|-------2---------|-0--0-0--0-0-0-0---0-0-0-0---E|2-0----0--0-2-4--|-----------------------------


e|------------------------7----------------------
B|----2---------5---------5---------3----------2-
G|----2---------6---------4---------2----------2-
D|----2---------7---------6---------4----------2-
A|----0---0--0-0--0-0-0-0---0-0-0-0---0-0-0-0--0-E|-3b--------------------------------------------


e|----------------|------------------------------
B|--^-------------|--------5---------5---------3-
G|4-2-0--^--------|--------6---------4---------2-
D|-----4-2-0--^---|--------7---------6---------4-
A|----------4-2-0-|-0--0-0---0-0-0-0---0-0-0-0---
E|----------------|------------------------------


e|---------------|-----------^-------------------
B|--------2----2-|------5\--3/5------------------
G|--------2----2-|------6\--2/4-------------7----
D|--------2----2-|------7\--4/6-------------7----
A|0-0-0-0-0----0-|---0----------4---4--4----5----
E|----------3b---|-x------------2-0-2--2-0-------


        w/bar   
e|-----------------------------------------------
B|--------------------------3--------------------
G|--7--(7)-(7)--------------2----------2-2-------
D|7-------------------------0--0-0--^--2-2-------
A|-------------4---4----^----------4\2-0-0-------
E|-------------2-0-2--0-2-0----------------4-2---


e|----------
B|----------
G|----------
D|2---------
A|2---4--0--
E|0--0------

Fill 1
Guitar 1

    ^      ^      ^      ^      ^     ^
e|-9-5---10-6---11-7---11-8---12-9---13-10-------
B|-----7------8------9------9------10------11----
G|-----------------------------------------------
D|-----------------------------------------------
A|-----------------------------------------------
E|-----------------------------------------------

    ^        ^        ^        ^        ^
e|14-11----15-12----16-13----17-14----18-15------
B|------12-------13-------14-------15------------
G|-----------------------------------------------
D|-----------------------------------------------
A|-----------------------------------------------
E|-------------------------------------------14\-



e|-----------------------------------------------
B|-----------------------------------------------
G|-------------------2---------------------------
D|-------------------2-----2---------------------
A|-4---4-1.9---------0-----2------4---4-----1.6--
E|-2-0-2----1.9--2-4---4-2-0-2-4--2-0-2-1.9------



e|----------0-0----------------------------------
B|-----3-3--0-0-------------x--------------------
G|-----2-2--1-1----------------2-2---------------
D|-----0-0--2-2-------4-4\-----2-2-----2-2-------
A|----------2-2-------4-4\-----0-0-0---2-2-------
E|2-0-------0-0--14\--2-2\-----------4-0-0-2-0---



e|-----------------------------------------------
B|-----------------------------------------------
G|------7-7-x-x-9-----x-x--11-11-11\--2----------
D|4-4\--7-7-x-x-9-----x-x--11-11-11\--2----2-2---
A|4-4\--5-5-x-x-7-----x-x---9--9--9\--0-0--2-2---
E|2-2\-------------0---------------------4-0-0---



e|-------------0
B|----------3--0
G|-----11\--2--1
D|-----11\--0--2
A|------9\-----2
E|2-0----------0


GUITAR SOLO

   T              T     T          T    
e|-----------------------------------------------
B|14^7^10^7^10^7-14^10-14^10^7^10-14^10-14^10^7--
G|-----------------------------------------------
D|-----------------------------------------------
A|-----------------------------------------------
E|-----------------------------------------------


        T     T
e|-----------------------------------------------
B|^10^-14^10-14^10^7^10^-15^10-15^10^7^10-15^10--
G|-----------------------------------------------
D|-----------------------------------------------
A|-----------------------------------------------
E|-----------------------------------------------



e|-----------------------------------------------
B|15^10^7^10-15^10-15^10^7^10-15^10-15^10^7^10---
G|-----------------------------------------------
D|-----------------------------------------------
A|-----------------------------------------------
E|-----------------------------------------------

Phs 2 *before the first tap bend the 11hold, and very slowly bring down until the string is back to its normal place.                 
[ Tab from: http://www.guitartabs.cc/tabs/o/ozzy_osbourne/crazy_train_tab.html ]
e15^10|------------------------------------------
B|-----------T-----T-----T-----T-----T-----T-----
G|-----11fb--14^11-14^11-14^11-14^11-14^11-14^11-
D|-----------------------------------------------
A|-----------------------------------------------
E|-----------------------------------------------



e|-----------------------------------------------
B|T------T-----T-------------------10------------
G|14^11--12^11-12^11--(11)^9\7-9fb----9fb~-(9)/--
D|-----------------------------------------------
A|-----------------------------------------------
E|-----------------------------------------------



e|---17-16-14-------14-16-17fb~--14-17^14----14--
B|--x---------17fb~-----------------------17-----
G|-x---------------------------------------------
D|x----------------------------------------------
A|-----------------------------------------------
E|-----------------------------------------------

                                  w/bar

e|-----------------------------------------------
B|17^15^14-15^14----14------------17-(17)-14~----
G|---------------16----16^14^16fb----------------
D|-----------------------------------------------
A|-----------------------------------------------
E|-----------------------------------------------



e|-------------14^17^14^17^14^17^14^17^14^17^14^-
B|-------14^17-----------------------------------
G|14^16------------------------------------------
D|-----------------------------------------------
A|-----------------------------------------------
E|-----------------------------------------------



e|18^15^19^16^20^17^21^17^21^17^21^17^21^17^21^17
B|-----------------------------------------------
G|-----------------------------------------------
D|-----------------------------------------------
A|-----------------------------------------------
E|-----------------------------------------------



e|^21^17^21^17^21^17^21^17^19^17^19^17\16^19^16^-
B|-----------------------------------------------
G|-----------------------------------------------
D|-----------------------------------------------
A|-----------------------------------------------
E|-----------------------------------------------



e|19^16^19^16^19^16^19^16^19^16\14^16^14---------
B|---------------------------------------17------
G|-----------------------------------------------
D|-----------------------------------------------
A|-----------------------------------------------
E|-----------------------------------------------


e|--------17-------------------------------------
B|-(17)fb----17fb~--15-14------------------------
G|------------------------16--14---------14------
D|------------------------------16^14^16---16^14-
A|-----------------------------------------------
E|-----------------------------------------------



e|-----------------------------------------------
B|-----------------------------------------------
G|----14---------14---------13^14^13^14^13^14^13^
D|^16---16^14^16---16^14^16----------------------
A|-----------------------------------------------
E|-----------------------------------------------



e|-----------------------------------------------
B|-----------------------------------------------
G|14^13----16~-----------------------------------
D|------16--------------------------11^14^16-----
A|-------------------------12^14^16--------------
E|-------------11\12^14^16-----------------------



e|------------------------14----17-19fb-19~~~~~~~
B|------------------14^17----/19-----------------
G|---------13^14^16------------------------------
D|13^14^16---------------------------------------
A|-----------------------------------------------
E|-----------------------------------------------



e|-----------------------------------------------
B|-----------------------------------------------
G|-----------------------------------------------
D|-----------------------------------------------
A|----4---5---4---2-------2----------------------
E|2-2---2---2---2---5-4-5---5-4-0----------------

X2
                           
                       Rhythem Figure 1 played x9
                      Open A's are Palm Muted    
e|-----------------------------------------------
B|---------------------------5--------5---------3
G|---------------------------6--------4---------2
D|----------------7\9--------7--------6---------4
A|----4---5---4^2-5\7-0--0-0--0-0-0-0---0-0-0-0--
E|2-2---2---2------------------------------------



e|---------------------------------------------7-
B|--------2----2-----------5---------5---------5-
G|--------2----2-----------6---------4---------6-
D|--------2----2-----------7---------6---------4-
A|0-0-0-0-0----0--0--0-0-0---0-0-0-0---0-0-0-0---
E|----------3b-----------------------------------



e|--------------------------------------|
B|--------3---------2----^--------------|
G|--------2---------2--4-2-0---^--------|
D|--------4---------2--------4-2-0---^--|
A|0-0-0-0---0-0-0-0-0--------------4-2-0|
E|--------------------------------------|



e|-----------------------------------------------
B|------5\--3/5-----3-----2----------------------
G|------6\--2/4-----2-----2----------------------
D|------7\--4/6-----0-----2----------------------
A|---0--------------------0----------------------
E|-x------------0-2---2-4----ps------------------


                       w/bar
e|--------------------5-----(5)------------------
B|------------------5----------------------------
G|-----------7----5------------------------------
D|-----------7--4--------------------------------
A|4---4---4--5-----------------------------------
E|2-0-2---2--------------------------------------



e|-----------------------------------------------
B|--------------3--------------------------------
G|--------------2------------2-2-----------------
D|--------------0---0-0--^---2-2------2--2-------
A|4---4-----^-----------4\2--0-0------2--2-----0-
E|2-0-2--0-2-0-------------------4-2--0--0-0-4---


Gtr.Fill: 3

e|--------------------------------------16-------
B|---------1417^14------1518^15------16----19^16-
G|---16fb----------17fb---------18fb-------------
D|-----------------------------------------------
A|-----------------------------------------------
E|-----------------------------------------------



e|--------17---------------18-------------------|
B|-----17----20^17------18----21^18-------------|
G|19fb-------------20fb-------------------------|
D|----------------------------------------------|
A|----------------------------------------------|
E|--------------------------------------17\-----|

*1.9 and 1.6 artificial harmonics are located on the 1st and 2nd fret.

e|-----------0-----------------------------------
B|-----------0-----------------------------------
G|-2---------1-----------------------------------
D|-2---------2-----------------------------2-----
A|-0---------2----------4---4--1.9---------2-----
E|-----4-2---0--4-4-0---2-0-2----1.9--2-4--0-----
                               


e|-----------------------------------0-----------
B|--------------------------------3--0-----------
G|--------------------------------2--1-----------
D|-----2--------------------------0--2-----------
A|-----2-------4---4-----1.6---------2-----------
E|4-2--0--2-4--2-0-2-1.9-----2-0-----0--14\------



e|-----------------------------------------------
B|-------x---------------------------------------
G|---------2-2-----------------------------------
D|4-4\-----2-2-----2-2-------4-4-(4)-x-x---------
A|4-4\-----0-0-0---2-2-------4-4-(4)-x-x---------
E|2-2\-----------4-0-0--2-0--2-2-(2)-x-x--------



e|-----------------------------------------------
B|-----------------------------------------------
G|7-7-x-x-9---x-x--------------2-----------------
D|7-7-x-x-9---x-x--4-4-4\-x-x--2------2----------
A|5-5-x-x-7---x-x--4-4-4\-x-x--0------2---^------
E|----------0------2-2-2\-x-x----4-2--0--4-0-----



e|------------0----------------------------------
B|---------3--0----------------------------------
G|---------2--1--11-11-11\--2--------------------
D|4-4-4\---0--2--11-11-11\--2--------2-----------
A|4-4-4\------2---9--9--9\--0--0-----2-----------
E|2-2-2\------0-------------------4--0-2-0-------



e|-----------------------------------------------
B|-----------------------------------------------
G|11-11-11\---7-7--x-x-9----11-11-11\-2----------
D|11-11-11\---7-7--x-x-9----11-11-11\-2-----2----
A|-9--9--9\---5-5--x-x-7-----9--9--9\-0-0---2----
E|------------------------0--------------4--0-2-0

Comments