Ozzy Osbourne - Bloodbath In Paradise Chords & Tabs

 

Bloodbath In Paradise Chords & Tabs

Ozzy Osbourne Chords & Tabs

Version: 2 Type: Tab 0 ratings
1 star 2 stars 3 stars 4 stars 5 stars
comments

Bloodbath In Paradise Tab

#-----------------------------------------------------------------------------#
#-- File created with Instab - http://www.pconline.com/~smcarey/instab.html --#
#-----------------------------------------------------------------------------#

Author/Artist: Ozzy Osbourne
Title: Bloodbath In Paridise
Album: No Rest For The Wicked
Transcribed by: Nick
Email: Biker7462@aol.com

This is soppost to be an add on to the first one i posted.
[ Tab from: http://www.guitartabs.cc/tabs/o/ozzy_osbourne/bloodbath_in_paradise_tab_ver_2.html ]
----------------------------------|-------------------------------------------|
----------------------------------|-------------------------------------------|
----------------------------------|-------------------------------------------|
----------5-----------------------|-----------5-------------------------------|
------------5--4h5p4h5p4h5ph4h5---|-------------5-4-3v------------------------|
-----3-3--------------------------|--4-4--2-----------------------------------|


------------------------------------------------------------------------------|
------------------------------------------------------------------------------|
------------------------------------------------------------------------------|
-2-------4---5-----4\5-4\5--2-------7---5-----4-5-----------------------------|
-0-0-0-0-2-0-3-0-0-2\3-2\3--0-0-0-0-5-0-3-0-0-2-3-----------------------------|
------------------------------------------------------------------------------|
      Sorry if this isnt a lot
Comments