Ozzy Osbourne - Blizzard Of Ozz Chords & Tabs

 

Blizzard Of Ozz Chords & Tabs

Ozzy Osbourne Chords & Tabs

Version: 1 Type: Tab 0 ratings
1 star 2 stars 3 stars 4 stars 5 stars
comments

Blizzard Of Ozz Tab

   
Band- Ozzy Osbourne
Album- Blizzard Of Ozz

1.I DON'T KNOW

|-----------------------------------------------------|
|-----------------------------------------------------|
|-------2---------------4----------------5------------|
|-------2---------------4----------------5------------|
|-------0--0-000-000000-0--00000-0000000-0-000000000--|
|-17\-------------------------------------------------|

|-----3-------------------------||--------------------------------|
|-----3---------3---------------||---1p0h1p0h1p0------------------|
|-7\--0---------2---------------||--------------2p0h2p0-----------|
|-7\--0---------0---------------||---------------------2p0h2p0----|
|-------------------------------||----------------------------3-0-|
|-----3--------------0---3^-----||--------------------------------|

"Everyone goes through changes..."
|----------------3-------3---3------------------3------3---3-------|
|-------------6----------3---3---------------6---------3---3-------|
|----5-----5-------------0---0------5-----5------------0---0-------|
|-3-----3----------------0---0---3-----3---------------0---0-------|
|------------------------------------------------------------------|
|-------------------5^---3---3---------------------5^--3---3-------|
                                  "Dont ask me..."
|---------------------------------|---------------------------------|
|---------6-6-----6-6-8-8-6-6-----|---------------------------------|
|-----5-5-----5-5-------------5-0-|-10----9----7----5---------------|
|-3-3-----------------------------|-10----9----7----5--5------------|
|---------------------------------|--8----7----5----3--5------------|back to first riff
|---------------------------------|--------------------3------------|
Fill:
|-this is tapping-----------------------------------------|
|-12p5p0-12p5p0-12p5p0-12p5p0-12p4p0-12p4p0-12p2p0-12p2p0-|
|---------------------------------------------------------|
|---------------------------------------------------------|
|---------------------------------------------------------|
|---------------------------------------------------------|

|-------------------------------------------------------------------|
|-------------------------------------------------------------------|
|-----7^-^-----0-----5----------7^-^-----0-----0---5----------------|
|-----7--------0-----5--5-------7--------0-----0---5----------------|
|-0-0--------0-------3--5---0-0--------0-----------3----------------|
|-----------------------3-----------------------------5--3--2--01~~-|

Bridge:
harm.===============================||
|---------------|-------------12--|----------7---------------------|
|-7-------------|---------7-------|-12-------8--10----8------------|
|-7-------------|-5---------------|-12-------7---------------------|
|-7-------------|-----------------|-12-----------------------------|
|---------------|-----------------|--------------------------------|
|---------------|-----------------|--------------------------------|
|               |                 |                                |
|-2-------------|-----------------|--------------------------------|
|-3------3h5/7--|-8-------7-------|-8-----------------8------------|
|-2------2-/-7--|-9-------7----9--|-7--7-----------7---------------|
|-0-------------|-----------------|-5-----5-----5------------------|
|---------------|-----------------|--------------------------------|
|---------------|-----------------|-7-----------7------------------|

|------------------------------|----------------|------------------|
|-10---------------------------|-7-------7h8/10-|-5-----8----10----|
|---12p10-10-------------------|-7-------7h9/11-|-5----------------|
|-----------12p10-10-----------|----------------|-5----------------|
|-------------------12p10------|-9--------------|-------7----------|
|------------------------12\10-|----------------|------------------|
|                              |                |                  |
|------------------------------|----------------|------------------|
|------------------------------|----------------|-------------7----|
|---------5---7-------5--------|---------7h9p7--|-9----------------|
|------7-------------------7---|---------7------|-5----------------|
|-8----------------------------|-5--------------|------------------|
|------------------------------|----------------|------------------|

|---------7-----------|---------------------------------|----------|
|-7----------10----8--|---------------------------------|----------|
|-9-------------------|-14p12p10-10---------------------|----------|
|---------------------|-10---------12p10-10h12p10-------|----------|
|---------------------|---------------------------12\10-|---9------|
|---------------------|---------------------------------|----------|
|                     |                                 |
|------------------3--|---------------------------------|----------|
|-3-------------3-----|-------------3----------1--------|----------|
|-0-------------------|---------2-----------------2-----|----------|
|---------------------|---------------------------------|--(0)-----|
|-2-------------------|-----3---------------------------|----------|
|---------------------|-1-------------------------------|----------|

Solo:
|-----------------------15----------15-----------------------------|
|-18^---18^~~~~~~~~~~~----18-15---15--18-15---15-------------------|
|------------------------------17^----------18--18-15-17-15--------|
|-----------------------------------------------------------17-15--|
|------------------------------------------------------------------|
|------------------------------------------------------------------|

|------------17^----------^^---17p15-17p15h17p15h17p15\13~~~-------|
|--------------------------------------------------------------13^-|
|-17^---15---------------------------------------------------------|
|------------------------------------------------------------------|
|------------------------------------------------------------------|
|------------------------------------------------------------------|

hold bend on 13, bend up 1/2 step each bar while playing this:
|----------------------------------------------------------------------|
|-16p13h16p13h16p13----------------------------------------------------|
|----------------------------------------------------------------------|
|---------------------%-----%-----%-----%------%-----12\0h3p0h3p0h3p0--|
|---------------------------------------------------[bend behind nut]--|
|----------------------------------------------------------------------|

|--------------------------------------------------------------------------|
|-----------------------------------------------------------------------18-|
|-----------------------------------------------------15-15-17-17-19-19----|
|-(0)----------------------------------------15-15--17---------------------|
|----3/--/15^~~~~---15^~~~~~---13-13-15-15/17-----17-----------------------|
|----------------------------15--------------------------------------------|

|----------18-21p20p18~~~---------18----------------^--------------|
|-18-20-20----------------20-18-20--20-18-20^---20^----^^----------|
|---------------------------------------------------------x-19^----|
|------------------------------------------------------------------|
|------------------------------------------------------------------|
|------------------------------------------------------------------|

|------------------------------------------------------------------|
|-------------------------11-10-----11-10-----10-9-----10-9--------|
|-19^----19^~~~~~~--12-12------12-10-----12-10----11-9------11-9---|
|------------------------------------------------------------------|
|------------------------------------------------------------------|
|------------------------------------------------------------------|

|-------------------------------------3----------------------------|
|-9-8-----8-7-----7-6-----6-5-------3---6p3--3---------------------|
|-----10-8----9-7-----8-6-----7-5-5^-------6---6p5p3--5-3----------|
|---------------------------------------------------5--------------|
|------------------------------------------------------------------|
|------------------------------------------------------------------|

|-------15---------------------------------------------------------|
|-----15--18-15---15---------17^^^~~~~~~---------------------------|
|-5/17---------18----17-15-x---------------------------------------|
|-----------------------------------------end solo-----------------|
|------------------------------------------------------------------|
|------------------------------------------------------------------|
Thing at end:
|-20p17-20p17--17--------------------------------------------------|
|------------20--20p17-20p17--17-----------------------------------|
|---------------------------19--19p17-19p17--17--------------------|
|------------------------------------------19--19p17---------------|
|---------------------------------------------------19p17----------|
|--------------------------------------------------------17\-------|

2.CRAZY TRAIN

Riff 1
|--------------------------------------------------------------------|
|--------------------------------------------------------------------|
|--------------------------------------------------------------------|
|---------------------------------7-7--9-9------------->-------------|X2
|--4-4-------7-7---2-2--4-4-------5-5--7-7------------->-------------|
|--2-2-------5-5---0-0--2-2---------------------------->-------------|
      _ _ _                _ _ _        ((>)After The Riff Two Times)

Riff 2
|--------------------------------------------------------------------|
|--------------------------------------------------------------------|
|--------------------------------------------------------------------|
|--------------------------------------------------------------------|X3
|-----4---5---4---2-------2------------------------------------------|
|-2-2---2---2---2---5-4-5---5-4-0------------------------------------|


|-------------------------------------|
|-------------------------------------|
|-------------------------------------|
|------------------7----9-------------|X1
|-----4---5---4----5----7-------------|
|-2-2---2---2-------------------------|
               _ _  _ _   _ _
            |
Riff 3  (This Is \|/ The Central Riff)
|-----------------------------|---|----------|----------------------|
|-----5-----5-----3-----2-----|---|----------|----------------------|
|-----6-----4-----2-----2-----|X10|----------|-----4h2h0------------|
|-----7-----6-----4-----2-----|---|----2-----|----------4h2h0-------|
|-0-0---0-0---0-0---0-0-------|---|----0-----|---------------4h2h0--|
|-----------------------------|---|--3-------|----------------------|
 P.M.                     _ _
(The Zero Is In Palm Muted)

Riff 4
|---------------------------------------8#^--|-------------------------------------|
|--------------------------------------------|-------------------------------------|
|--------------------------------------------|-------------------------------------|
|--------------------------------------------|-----------------------7-----9---->--|
|--4--0--4--4-4--4---6--7--6--4--0--4--6-----|--4--0--4--4#4#--4--6--5-----7---->--|
|--2--0--2--2#2#-2---4--5--4--2--0--2--4-----|--2--0--2--2#2#--2--4------------->--|
                                                                      _ _ _
Back to Riff 3

I Know A Bit Of This ***ing Hard Solo
(Tapping)
|---------------|----------------|
|--14-7h10------|-15-7h10--------|
|-------------X8|----------------|X8
|--T------------|-T--------------|
|---------------|----------------|
|---------------|----------------|

3.GOODBYE TO ROMANCE

INTRO
E|-----0--2-3-2p0--2-0-----0-----0------------------0-----------|
B|--3-------------------3-----3----2------2------3--------------|
G|-------------------------------------4-----0------------------|
D|--------------------------------------------------------------|
A|--------------------------------------------------------------|
E|--------------------------------------------------------------|

E|--5---------5-------5------------9------12----0--------0-----------------|
B|--7----7------------7------------10-----10----3------3---3---0p2-3/5-----|
G|--6-----------------6------------9------9-----0----0---------0p2-4/6-----|
D|--7----7------------7------------11-----11----0--------------------------|
A|--5-----------------5------------9------9-----X--------------------------|
E|----------------------------------------------3--------------------------|

E|-------------------------------------------------|
B|--7--5--3----2h3h5-------------------------------|
G|--7--6--4----2-----------------------------------|
D|-------------------------------------------------|
A|-------------------------------------------------|
E|-------------------------------------------------|

E|--5----------5----9p5-----------9-----12----0--------------------------------|
B|--7-----7--------------7--------12----10----3---0h2--3/5---7---5---3-----5---|
G|--6-----------------------6-----9-----9-----0---0h2--4/6---7---6---4-----6---|
D|--7-----7-----------------------11----11----0--------------------------------|
A|--5-----------------------------9-----9-----x--------------------------------|
E|--------------------------------------------3--------------------------------|

E|--2--------------2-------------------------------------2-------|
B|--3---3-----3/5----------------3p2---------------3-------3-----|
G|--2------2----------------2--------2-----------4---4-------4---|
D|--0---------------------2--2---------2-----------------------4-|
A|---------------------4----------------------2------------------|
E|---------------------------------------------------------------|


E|------------0------------0------------0----------0---0-0--0-0--|----------|  1st
B|-------3------3----------3-----3--------3---3----3---3-3--2-2--|----------|ending
G|-----4---4------4--------0---0---0--------0------0---0-0--0-0--|----------|:repeat
D|------------------4------0-----------------------2---2-2--2-2--|-----0h2--|
A|--0----------------------X-----------------------0---0-0--0-0--|-0h2------|
E|-------------------------3-------------------------------------|----------|

E|----0--2-5---3p2---2p0-----0----0---------------------------|  second ending
B|--3----------------------3----3----2h3p2-----2-----3--------|
G|------------------------------------------4------0----0-----|
D|------------------------------------------------------------|
A|------------------------------------------------------------|
E|------------------------------------------------------------|

SOLO
E|------------------------15-14------14h15p14----14----------------14------|
B|------------------------------17------------17----17-15-14---17b-----17--|
G|------7h9--7--/11--/14---------------------------------------------------|
D|--7h9--------------------------------------------------------------------|
A|-------------------------------------------------------------------------|
E|-------------------------------------------------------------------------|

E|--14-15--17p15p14-----------------------------14h15p14h15p14---15h17p15h17p15-|
B|------------------17p15p14-----------14h15h17---------------------------------|
G|---------------------------16p14h16-------------------------------------------|
D|------------------------------------------------------------------------------|
A|------------------------------------------------------------------------------|
E|------------------------------------------------------------------------------|

E|-17h19p17h19p17--19h21p19h21p19--21b--21-19--21p19-----19-21b---|
B|----------------------------------------------------21----------|
G|----------------------------------------------------------------|
D|----------------------------------------------------------------|
A|----------------------------------------------------------------|
E|----------------------------------------------------------------|

E|-------7-------------------7-9b7-----7--------------------------|
B|-----7---10p7--8p7----7-----------10---10p8p7--8p7-----------7--|
G|--9b---------------9b---9--------------------------9--6-7-9-----|
D|----------------------------------------------------------------|
A|----------------------------------------------------------------|
E|----------------------------------------------------------------|


E|--9h10--7h9----7---------------------------------------|
B|------------10---8h10-7h10---7-------------------------|
G|---------------------------9----7h9-6h7---9~--11~------|
D|-------------------------------------------------------|
A|-------------------------------------------------------|
E|-------------------------------------------------------|


E|--------------------15h17h19p17p15-----------14~-------|
B|-----------15h17h19----------------19p17p15--15~-------|
G|--14h16h18---------------------------------------------|
D|-------------------------------------------------------|
A|-------------------------------------------------------|
E|-------------------------------------------------------|

4.DEE

G               D6         D6         Bm             G/B
-7------3^5-7--|-5--------|-<7>------|-7--------7---|-10--------10---|
------3--------|-0--------|-<7>------|------7-------|-------8------8-|
---------------|----------|-<7>------|----7---7---7-|-----7---7------|
-5-------------|-0--------|-<7>------|-9------------|--9-------------|
---------------|----------|----------|--------------|----------------|
---------------|----------|----------|--------------|----------------|

 A/C#           (A/C#)      G(maj 7)      D/F#        A7/E
-----------12--|-12--------|-7---------7-|-5---------|-------------|
--------10-----|-----------|-------7^8---|-----------|-8---------8-|
------9--------|-----------|-----7-------|-----------|------6------|
-9/11----------|-----------|-5-----------|-4---------|-------------|
---------------|-----------|-------------|-----------|-7-----------|
---------------|-----------|-------------|-----------|-------------|

 D   A/C# Bm   G6            A           D/F#       Dadd2/F#
-------------|-0--------0-|-----------|-------------|-0-------5^7^5^3-|
-7----5----3-|------0-----|-5^3-----3-|-3-------2---|-----2---7^8^7^5-|
-------------|------------|------6----|-------3---3-|--------(overdub)|
-------------|------------|-----------|-4---4-------|-----------------|
-5----4----2-|------------|-0---------|-------------|-----------------|
-------------|-3----------|-----------|-------------|-----------------|

B7/D#             B7               Em                     E7
-2---------2----|-----------0--2-|-3---------------|-3^2--2^0-----0-|
--------0-----0-|(0)-----0-------|----------0------|-----------3----|
-----2----------|-----2----------|-------0--0--0---|----------------|
-1--------------|----------------|----2----------2-|----------------|
----------------|-2--------------|-----------------|----------------|
----------------|-----------3--2-|-0---------------|------4---------|

 A7                                               D
--------------|-<12>------|---------------------|-----2--3--5^7^5-|
-2---------3/-|-<12>------|---------------------|-----3--5--7-----|
------0-------|-<12>------|-2^4^2^0-------------|-----------------|
--------------|-<12>------|---------4^2^0-------|-0---------------|
-0------------|-(0)-------|---------------4^2^0-|-----------------|
--------------|-----------|---------------------|-----------------|

G/B            D                   A7           D
-----------0-|----2--3--5--7^9^7-|-------------|-5^3^2--3^2^0--2^0-|
-3------3----|----3--5--7--------|-2-------3^0-|-------------------|
-----0-------|-------------------|-----0-------|-------------------|
-------------|-0-----------------|-2-----------|-0-----------------|
-2-----------|-------------------|-0-----------|-------------------|
-------------|-------------------|-------------|-------------------|

A/C#            Bm  Bm/A          A7           D/F#
-2^0-----0-----|----------------|-------------|-------------|
------3-----5\-|-3-5-2-3--3-/-5-|-2---------3-|-3-----------|
---------------|----------------|-0----0------|------2------|
---------------|----------------|-------------|-----------0-|
-4-------------|-2---0----------|-0-----------|-------------|
---------------|----------------|-------------|-2-----------|

 A7       rit.-|A7/C#    D6
--------7-^-5--|-5-^-3---<7>---|
--------8-^-7--|-7-^-5---<7>---|
------(overdub).......|--<7>---|
---------------|---------<7>---|
-2^0-----------|-4-------------|
--------0------|---------------|

5.SUICIDE SOLUTION

|------------|-------------------------------|-----------------------------|
|------------|-------------------------------|-----------------------------|
|------------|-2--------5\----0--2-----------|-5\---0--2-------------------|
|------------|-2--------5\----0--2-----------|-5\---0--2-------------------|
|------------|-0--0--0--------------0--0-----|-0---------------------------|
|--x---17\---|----x--x--------------x--x-----|----------------3bf----------|


|-------------------------------|------------------------------------------|
|-------------------------------|------------------------------------------|
|-2--------5\----0--2-----------|-5\---0--2------5w/bar--------------------|
|-2--------5\----0--2-----------|-5\---0--2--------------------------------|
|-0--0--0--------------0--0-----|-0----------------------------------------|
|----x--x--------------x--x-----|------------------------------------------|

Wine is fine, but whiskey's..........

Verse
|---------------------------------|-----------------------------------------|
|---------------------------------|-----------------------------------------|
|-2---------5\-----0---2----------|-5\----0----2----------------------------|
|-2---------5\-----0---2----------|-5\----0----2------------2p0-------------|
|-0--0--0-------------------0--0--|-0----------------0-----------3----------|
|----x--x-------------------------|-----------------------------------------|


Suicide is slow with ......

|--------------------------------|----------------------|-------------------|
|--------------------------------|----------------------|-------------------|
|-2--------5\----0--2------------|-5\---0--2------------|-2-------5\--0-2---|
|-2--------5\----0--2------------|-5\---0--2--5-2p1p0---|-2-------5\--0-2---|
|-0--0--0----------------0---0---|--------------------3-|-0--0--0--------0-0|
|--------------------------------|----------------------|-------------------|


your sorrows          then it flood......
|--------------------|---------------------------|-------------------------|
|--------------------|---------------------------|-------------------------|
|-5\----0--2---------|-2--------5\---0--2--------|-9--7--5--0--------------|
|-5\----0--2---------|-2--------5\---0--2--------|-9--7--5--0--------------|
|--------------------|-0--0--0-------------0--0--|-7--5--3-----------------|
|--------------3bf~--|---------------------------|----------3--------------|


                               away tomorrow

|--------------------|------------------------|----------------------------|
|--------------------|------------------------|----------------------------|
|-------5-----5--7~--|--0----------2----5*----|-----------5--------5--7~---|
|-------5-----5--7~--|--0----------2----------|-----------5--------5--7~---|
|-0--0-----0---------|-------------0----------|-0---0--0-----0--0----------|
|--------------------|------3bf---------------|----------------------------|


                        Evil thoughts and evil....

|----------------------|--------------------------|------------------------|
|----------------------|--------------------------|------------------------|
|-0--------2-----------|-2--------5\--0--2--------|-5\---0--2--------------|
|-0--------2-----------|-2--------5\--0--2--------|-5\---0--2-----2p0------|
|----------0-----------|-0--0--0------------0--0--|------------0--------3--|
|-----3bf---------17\--|--------------------------|------------------------|


cold, alone you hand in .....

|---------------------------|-------------------------|---------------------|
|---------------------------|-------------------------|---------------------|
|-2--------5\---0--2--------|-5\--0--2----------------|-2--------5\--0--2---|
|-2--------5\---0--2--------|-5\--0--2--5-2p1p0h1p0---|-2--------5\--0--2---|
|-0--0--0-------------0--0--|-----------------------3-|-0--0--0----------0-0|
|---------------------------|-------------------------|---------------------|


the reaper               you can't escape ............

|-------------------------|------------------------|-----------------------|
|-----------10--13\10/13--|------------------------|-----------------------|
|-5\---0--2--9--12\-9/12--|-------5\---0--2--------|-9--7--5----0----------|
|-5\---0--2--7--10\-7/10--|-------5\---0--2--------|-9--7--5----0----------|
|-------------------------|-0--0-------------0--0--|-7--5--3---------14\---|
|-------------------------|------------------------|------------3----------|


'Cause you feel life's unreal .........

|-------------------------|------------|-----------------------------------|
|-------------------------|------------|-----------------------------------|
|-------4--------6--------|-7----6-----|---------4--------6----------------|
|-------4--------6--------|-7----6-----|---------4--------6----------------|
|-0--2-----0--2-----0--2--|------------|---0--2-----0--2------0--2---------|
|-------------------------|------------|-----------------------------------|


blame, and you're wondering why.  Then you .......
|-------------------------|------------------------|-----------------------|
|-------------------------|------------------------|-----------------------|
|-7----7--6----4--2-------|-----4--------6---------|--7------6-------------|
|-7----7--6----4--2-------|-----4--------6---------|--7------6-------------|
|--------------------0----|--2-----0--2-----0--2---|-----------------------|
|-------------------------|------------------------|-----------------------|


What you sow can .......

|-------------------------|-----------------------|------------------------|
|-------------------------|-----------------------|------------------------|
|-------4--------6--------|-7---------9-----------|----5----5----7~--------|
|-------4--------6--------|-7---------9-----------|----5----5----7~--------|
|-0--2-----0--2-----0--2--|-----4/5---7-----------|-0----------------------|
|-------------------------|---------------0~w/bar-|------------------------|


              Hell on this ...

|------------------|--------------------------|----------------------------|
|------------------|--------------------------|----------------------------|
|--0-------2---5*--|-----------5--------5--7~-|--0--------2----------------|
|--0-------2-------|-----------5--------5--7~-|--0--------2----------------|
|----------0-------|-0---0--0-----0--0--------|-----------0----------------|
|-----3bf----------|--------------------------|-----3bf----------17\-------|


Now you live inside .........

|---------------------------|---------------------|-------------------------|
|---------------------------|---------------------|-------------------------|
|-2--------5\---0--2--------|-5\---0--2-----------|---------5\----0--2------|
|-2--------5\---0--2--------|-5\---0--2-----1p0---|---------5\----0--2------|
|-0--0--0-------------0--0--|------------0------3-|-0--0-0-------------0--0-|
|---------------------------|---------------------|-------------------------|


full throttle.  It's ........

|-------------------|-----------------------------|------------------------|
|-------------------|-----------------------------|------------------------|
|-5\---0--2--0dive--|--2--------5\---0--2---------|-5\--0--2---------------|
|-5\---0--2---------|--2--------5\---0--2---------|-5\--0--2---------------|
|-------------------|--0--0--0--------------0--0--|------------3/12\-------|
|-------------------|-----------------------------|------------------------|


The reaper's you and ........

|---------------------------|--------------------|-------------------------|
|---------------------------|--------------------|-------------------------|
|-2--------5\---0--2--------|-9--7--5---0--------|-------4--------6--------|
|-2--------5\---0--2--------|-9--7--5---0--------|-------4--------6--------|
|-0--0--0-------------0--0--|-7--5--3------------|-0--2-----0--2-----0--2--|
|---------------------------|-----------3--------|-------------------------|


doors, but there's no one at ..........
|-----------------|-------------------------|------------------------------|
|-----------------|-------------------------|------------------------------|
|--7------6-------|-------4--------6--------|-7----7--6----4--2------------|
|--7------6-------|-------4--------6--------|-7----7--6----4--2------------|
|-----------------|-0--2-----0--2-----0--2--|----------------------0-------|
|-----------------|-------------------------|------------------------------|


Where to hide?  Suicide ............

|-------------------------|-----------------|-------------------------|
|-------------------------|-----------------|-------------------------|
|-------4--------6--------|-7----7--6----4--|-------4--------6--------|
|-------4--------6--------|-7----7--6----4--|-------4--------6--------|
|-0--2-----0--2-----0--2--|-----------------|-0--2-----0--2-----0--2--|
|-------------------------|-----------------|-------------------------|


realy about?

|------------------------|------------|----------|-----------|---------------|
|------------------------|------------|----------|-----------|---------------|
|--7--------9------------|--2---------|----------|-----------|---------------|
|--7--------9------------|--2---------|----------|-----------|-----x---------|
|-----4/5---7------------|--0---------|----------|-----------|-----x---------|
|---------------0~w/bar--|------------|----------|-----------|---------------|
                           sustain-------------------------------------------| pick scrape


|------------|-----------|---------|-----------|----------|----------------|
|------------|-----------|---------|-----------|----------|----------------|
|--5---------|---4-------|--0------|---2-------|--5-------|-7--------0-----|
|--5---------|---4-------|--0------|---2-------|--5-------|-7--------0-----|
|------------|-----------|---------|---0-------|----------|----------------|
|------------|-----------|---------|-----------|----------|----------------|
volume swells


|----------------|--------------------|---------------|--------------------|
|----------------|--------------------|---------------|--------------------|
|--2-------------|----------2----4----|---5-----------|--4-----------------|
|--2-------------|----------2----4----|---5-----------|--4-----------------|
|--0-------------|--------------------|---------------|--------------------|
|----------------|--------------------|---------------|--------------------|


|-------------|--------------------|----------------|----------------------|
|-------------|--------------------|----------------|----------------------|
|--0----------|---2--------2--4----|--5-------------|--7------0------------|
|--0----------|---2--------2--4----|--5-------------|--7------0------------|
|-------------|---0----------------|----------------|----------------------|
|-------------|--------------------|----------------|----------------------|


|-------------------------------|------------------------------------------|
|-------------------------------|------------------------------------------|
|-2---------5\----0----2--------|--5\--------0---------2-------------------|
|-2---------5\----0----2--------|--5\--------0---------2-------------------|
|-0--0--0-----------------0--0--|--0---------------------------------------|
|-------------------------------|------------------------------3bf---------|


|-------------------------------|------------------------------------------|
|-------------------------------|------------------------------------------|
|-2---------5\----0----2--------|--5\--------0---------2--------5*---------|
|-2---------5\----0----2--------|--5\--------0---------2-------------------|
|-0--0--0-----------------0--0--|--0---------------------------------------|
|-------------------------------|------------------------------------------|


|-------------------------------|------------------------------------------|
|-------------------------------|------------------------------------------|
|-2---------5\----0----2--------|--5\--------0---------2----------2*~------|
|-2---------5\----0----2--------|--5\--------0---------2-------------------|
|-0--0--0-----------------0--0--|--0-----------------------3/4-------------|
|-------------------------------|------------------------------------------|


|-------------------------------|------------------------------------------|
|-------------------------------|------------------------------------------|
|-2---------5\----0----2--------|--5\--------0---------2-------------------|
|-2---------5\----0----2--------|--5\--------0---------2-------------------|
|-0--0--0-----------------0--0--|--0---------------------------0bf w/bar---|
|-------------------------------|------------------------------------------|


|-------------------------------|------------------------------------------|
|-------------------------------|------------------------------------------|
|-2---------5\----0----2--------|--5\--------0---------2-------0w/bar------|
|-2---------5\----0----2--------|--5\--------0---------2-------------------|
|-0--0--0-----------------0--0--|--0---------------------------------------|
|-------------------------------|------------------------------------------|


|-------------------------------|------------------------------------------|
|-------------------------------|------------------------------------------|
|-2---------5\----0----2--------|-9--7--5---0------------------------------|
|-2---------5\----0----2--------|-9--7--5---0------------------------------|
|-0--0--0-----------------0--0--|-7--5--3----------------------------------|
|-------------------------------|-----------3------------------3-----------|


Solo
|---------------|-----------|-------------------|--------------------------|
|---------------|-----------|-------------------|--------------------------|
|--2------------|-----------|--17\--------------|--------------------------|
|--2------------|------x-x--|--17\----2---------|--------------------------|
|--0------------|-/15-------|-------------------|--------------------------|
|---------------|-----------|-------------------|-------------------/12\---|


|---------------------|-------------------|--------------------------------|
|---------------------|-------------------|--------------------------------|
|--------------7b1/2--|-p5----------------|5-------------------------------|
|-----------x---------|-------------------|5-------------------------------|
|---------------------|-----------------x/|--------------------------------|
|-/17\----------------|-------------------|--------------------------------|

                    1/2
|----------------|------------|--------------------|-----------------------|
|----------------|------------|--------------------|-----------------------|
|vol-swells------|--7b--------|--0dive w/bar-------|-------17--------------|
|----------------|------------|--------------------|-------17--------------|
|----------------|------------|--------------------|-h3--------------------|
|----------------|------------|--------------------|-----------------------|


|--------------|-------------------------|---------------------------------|
|--------------|-13divew/bar-------------|---------------------------------|
|--14~w/bar----|-------------------------|-------0-dive-w/bar--------------|
|--------------|-------------------------|---------------------------------|
|-----------7\-|-------------------------|---------------------------------|
|--------------|-------------------------|---------------------------------|
           dive

|------------|--------------------|----------------------------------------|
|------------|--------------------|----------------------------------------|
|-0-dive-----|----------0---------|--/17\----------------------------------|
|------------|--------------------|----------------------------------------|
|------------|-0------------------|----------0-hold bar down---------------|
|------------|--------------------|----------------------------------------|


|------------------|--------------------|----------------------------------|
|------------------|--------------------|----------------------------------|
|------------------|---2p0-dive---------|----------------------------------|
|------------------|--------------------|-----5~-w/bar---------------------|
|-0-return---------|--------------------|----------------------------------|
|------------------|--------------------|----------------------------------|


|-----------------|-------------------|-------------------|----------------|
|-----------------|-------------------|-------------------|----------------|
|-----------------|-------------------|--7dive---p4~------|----------------|
|-5--2dive--------|--h5-----14/17~----|-------------------|-2dive--h5dive--|
|-----------------|-------------------|-------------------|----------------|
|-----------------|-------------------|-------------------|----------------|

6.MR.CROWLEY

(Synth. arr. for gtr.)
 Dm                Am                  F               C
|-----------------|-------------------|---------------|---------------------|
|-----------------|-------------------|---------------|---------------------|
|-----------------|-2------------2--0-|-----0---2---4-|-5---0------5---4----|
|--0---2---3---5--|------2------------|-3-------------|---------------------|
|-----------------|----------0--------|---------------|---------3-----------|
|-----------------|-------------------|---------------|---------------------|

 Am              Em          Am A#  F    G  F  E  F  A
|---------------|-----------|-5--6--1-|--3--1--0--1-|-----------------------|
|-------------3-|-5---------|-5--6--1-|--3--1--0--1-|-----------------------|
|-2---4---5-----|-----4-----|-5--7--2-|--0--2--1--2-|-2---------------------|
|---------------|---------2-|-7--8--3-|--0--3--2--3-|----------3v(2)~-------|
|---------------|-----------|-7--8----|--------2----|-----------------------|
|---------------|-----------|-5--6--1-|--3--1--0--1-|-----------------------|

Verse 1

|-----------|----------|---------------------|------------|----------|-------|
|-----------|----------|---------------------|------------|----------|-------|
|-7---------|-7--------|-3--X-3~-------------|-3--X-3~----|-7--------|-7-----|
|-7---------|-7--------|-3--X-3~-------------|-3--X-3~----|-7--------|-7-----|
|-5---0-----|-5--------|-1--X-1~-1-1-3-1-0-0-|-1--X-1~-1/-|-5---0----|-5-----|
|--------1--|-----18\--|---------------------|------------|--------1-|----22\|

                                                  [- Fill 1 --]
|---------------------|-----------|---------------|-----------|--------------|
|---------------------|-----------|---------------|------5----|--------------|
|-3--X-3~-------------|-3--X-3~-3-|-5--3--5--3--5-|------5--7-|-7--5--7~-----|
|-3--X-3~-------------|-3--X-3~-3-|-5--3--5--3--5-|------5--7-|-7--5--7~-----|
|-1--X-1~-1-1-3-1-0-0-|-1--X-1~-1-|-3--3--3-----3-|-5h7--5--5-|-5--5--5~-----|
|---------------------|-----------|---------------|-----------|--------------|

[-- Fill 2 --------------------------------------------------------------------|
|--------------------|-------------|------------|-------------|----------------|
|-----------X--------|-------------|------------|-------------|----------------|
|-----5h7p5-7^(9)-5~-|-5--X--5---5-|-----5--X-5-|-3--3--3-----|----------------|
|-----5h7p5----------|-5--X--5---5-|-----5--X-5-|-3--3--3-----|----------------|
|-5h7----------------|-3--X--3-0-3-|-0-1-3--X-3-|-1--1--1-1p0-|----------------|
|--------------------|-------------|------------|-------------|-17\------------|

Verse 2

Repeat VERSE 1, but replace FILL 1 with FILL 3 and FILL 2 with FILL 4:

[-- Fill 3 -------] [-- Fill 4 --------------------|
|-----------------| |------------------------------|
|-----------------| |-3h4p3--3---------------------|
|-----------------| |------5--5-3h5p3\2--2---------|
|---------------7-| |------------------5--5-3-2----|
|-5h7p5h7p5h7p5-5-| |--------------------------5---|
|-----------------| |------------------------------|

Solo

|----------10----------------10----------------10----------------10-------10--|
|--------10---13p10--------10---13p10--------10---13p10--------10---13p10-----|
|-12^(14)-----------12^(14)-----------12^(14)-----------12^(14)---------------|
|-----------------------------------------------------------------------------|
|-----------------------------------------------------------------------------|
|-----------------------------------------------------------------------------|

|-13p10----10-----------------------------------------------------------------|
|-------13----13-10-13p10-----------------------------------------------------|
|-------------------------12-10-12p10----10--------------10-10-12-------------|
|-------------------------------------12---12-10-12p10h12---------------------|
|-----------------------------------------------------------------------------|
|-----------------------------------------------------------------------------|

|--------------------------10-13p12-10-15p13p12-16p15p13-18p16p15/20-20p18p17-|
|------------13-13-13p10-13---------------------------------------------------|
|-12p10-12/14-----------------------------------------------------------------|
|-----------------------------------------------------------------------------|
|-----------------------------------------------------------------------------|
|-----------------------------------------------------------------------------|
[ Tab from: http://www.guitartabs.cc/tabs/o/ozzy_osbourne/blizzard_of_ozz_tab.html ]
|-20^(22)---20^(22)v(18)---20~-----20p17h18-20p17h18p17--|
|--------------------------------------------------------|
|--------------------------------------------------------|
|--------------------------------------------------------|
|--------------------------------------------------------|
|--------------------------------------------------------|

|-17h18p17--17------17h18p17--17-------------------------------------------|
|---------20--18-20---------20--20p17h18p17---17---------------------------|
|-------------------------------------------19--19p17---17-----------------|
|----------------------------------------------------20---20p19p17---17----|
|-----------------------------------------------------------------20-------|
|--------------------------------------------------------------------------|

|-------------------------20^(22)--|
|----------------------------------|
|---------------------X------------|
|----------17~--------X------------|
|-19~----------19~----X------------|
|----------------------------------|

|-20p17h20p17h18p17-18p17----17-------------------------|
|-------------------------20---20p17-18p17h18p17h18p17--|
|-------------------------------------------------------|
|-------------------------------------------------------|
|-------------------------------------------------------|
|-------------------------------------------------------|

|------------20----20~\--|
|-20^(22)----------20~\--|
|------------------------|
|------------------------|
|------------------------|
|------------------------|

|-13p10--10-----13p10--10-----13p10-10-10-----13p10-10-10-------|
|------13--13p10-----13--13p10-----------13-10-----------13p10--|
|---------------------------------------------------------------|
|---------------------------------------------------------------|
|---------------------------------------------------------------|
|---------------------------------------------------------------|

|-13p10--10-----13-10--10-----13p10--10-----13p10--10-------|
|------13--13p10-----13--13p10-----13--13p10-----13--13p10--|
|-----------------------------------------------------------|
|-----------------------------------------------------------|
|-----------------------------------------------------------|
|-----------------------------------------------------------|

|-13p10--10------------------------------------------5--|
|------13--13p10-11p10--10-----------------------5h6----|
|---------------------12--12p9-10-9\7-9-7\5-7p5---------|
|----------------------------------------------7--------|
|-------------------------------------------------------|
|-------------------------------------------------------|

|---------------8-----------|-------------------------------|
|-8^(9)^(10)~~~~~~~~~v(9)---|-6------------6p5--------------|
|---------------------------|---7~--7~--7p5---7-5-----------|
|---------------------------|---------------------8p7p5-----|
|---------------------------|---------------------------8---|
|---------------------------|-------------------------------|

|---------------------------|-------------------------------|--------|
|---------------------------|-------------------------------|--------|
|---------------------------|-------------------------------|--------|
|-5-----------5-------------|-------------------------------|--------|
|---8p7p5-7h8---8--7~--5~---|-4~---5~---7~---12h13p12h13p12-|-20/0---|
|---------------------------|-------------------------------|--------|

Verse 3

Repeat VERSE 2, but replace FILL 4 with FILL 5:

[-- Fill 5 ------------------------------------|
|----------10----------------------------------|
|-13^(15)~---13-11-10h12p10--10----------------|
|--------------------------13--13p10h13p10-----|
|-----------------------------------------12---|
|----------------------------------------------|
|----------------------------------------------|

Interlude

|--1--------1p0-----|-----5--3----|-------------------|-----------------|
|:-3----3-------3p1-|-----6--5--5-|-------------------|----8--6---------|
|--2--2---2---------|-3-----------|-5----5h7-9p7------|----------7------|
|--0----------------|-3-----------|-5--5---------10p8-|-7-----------7---|
|:------------------|-------------|-------------------|-----------------|
|-------------------|-------------|-------------------|-----------------|
                                            [--- 1 ---][--- 2 ----------|
|-----------------|------------|------------|---------|-------0---------|
|-3---------------|----6p5h6-5-|-2--3--5--6-|-5--3--2~|-5--3--2---------|
|-3---3h5-7-5-3-2-|-0--------0-|------------|---------|-------2---------|
|-3-3-------------|------------|------------|---------|-------2---------|
|-----------------|------------|------------|---------|-------0---------|
|-----------------|------------|------------|---------|-----------------|

|-17p13-------------------18p13----------------------------|
|-------15-(repeat 4 X)--------15--(repeat 4x)-------------|
|----------------------------------------------------------|
|----------------------------------------------------------|
|----------------------------------------------------------|
|----------------------------------------------------------|

|-15p12------------------17p13-----------------------------|
|-------13-(repeat 4x)---------13-(repeat 4x)--------------|
|----------------------------------------------------------|
|----------------------------------------------------------|
|----------------------------------------------------------|
|----------------------------------------------------------|

|----------------------------------------------------------|
|-15h16p15h16-16/18\16/18-18---16---15---16----------------|
|-15h17p15h17-17/19\17/19-19---17---15---17----------------|
|----------------------------------------------------------|
|----------------------------------------------------------|
|----------------------------------------------------------|

|-15---12---------12----9----10----12----13---12-----------|
|-/-----/----11----/----/-----/-----/-----/----------------|
|-/-----/-----/----/----/-----/-----/-----/----------------|
|-/-----/-----/----/----/-----/-----/-----/----------------|
|-------------/--------------------------------------------|
|----------------------------------------------------------|

|10h12p10h12p10h12-12~~~-9-10-9-10-9-10-----------------------------------------|
|--------------------------------------10-11-10-11-10-11------------------------|
|----------------------------------------------------9-10-9-10-9-10-6-7-6-7-6-7-|
|-------------------------------------------------------------------------------|
|-------------------------------------------------------------------------------|
|-------------------------------------------------------------------------------|

|---------9h10-12-10-12^~~~~~-----5h6p5--5-----------------------|
|-----9h10-----------------------------8---8-6p5-6p5-7-5---------|
|-9h10---------------------------------------------------8p7-5---|
|--------------------------------------------------------------8-|
|----------------------------------------------------------------|
|----------------------------------------------------------------|

|----------------------------------------------------------5-6-8-6-5---------|
|----------------------------------------------------5-6-8-----------8-------|
|-----------------------------------------2-3-5-3-5-7------------------------|
|-5---------5-7p5-------------------2-3-5------------------------------------|
|---8p7p5-8-------8-\----------1-3-5-----------------------------------------|
|-------------------------1-3-5----------------------------------------------|

|-5-------------5------------------------------------------------------------|
|---8-6p5-6p5-8---8-----6--5-----2-3-2-3-2-3/3-5-3-5-3-5/6-5-6-5-6/8-6-8-6-8-|
|----------------------------------------------------------------------------|
|----------------------------------------------------------------------------|
|----------------------------------------------------------------------------|
|----------------------------------------------------------------------------|

-----------------------------------------------------------|
/10-8-10-8-10/11-10-11-10-11-10-11/13-11-13-11-13-11-15^---|
-----------------------------------------------------------|
-----------------------------------------------------------|
-----------------------------------------------------------|
-----------------------------------------------------------|

|-------------------------------------17-18-17--17-------------17---------20--|
|-17h18----------17-18-17-18-------18---------20--20-18-17-18-20--20-18-17----|
|-------19~~~~---------------19~~~~-------------------------------------------|
|-----------------------------------------------------------------------------|
|-----------------------------------------------------------------------------|
|-----------------------------------------------------------------------------|

|-18--17-20-18-17-20--18152018141916\15131814131613121512\11101411-9--|
|---------------------------------------------------------------------|
|---------------------------------------------------------------------|
|---------------------------------------------------------------------|
|---------------------------------------------------------------------|
|---------------------------------------------------------------------|

|-13-10\5h6p5---5------------------------------------------|
|-------------8---8-6-5---5--------------------------------|
|-----------------------7---7-5---5------------------------|
|-------------------------------8---8-7-8-7---------5------|
|-------------------------------------------7/8-7h8--------|
|----------------------------------------------------------|

|----------------------------------------------------------|
|----------------------------------------------------------|
|----------------------------------------------------------|
|-7--5------------------------------------3----------------|
|-------8--7---5--3--------3/5------5-3-5---5-3-5----------|
|--------------------5-3-1---------------------------------|

|----------------------------------------------------------|
|-------------------------------------6p5------------------|
|---------------------------------5h7----7p5-7~~~~---------|
|-6-3-5-3----------------3--5-5/7--------------------------|
|---------5-3---5--3--5------------------------------------|
|----------------------------------------------------------|

|-5h6p5---5------------------------|
|-------8---8-6-5-6-5--------------|
|---------------------7-5-7-5------|
|-----------------------------8-7--|
|----------------------------------|
|----------------------------------|

7.NO BONE MOVIES

 riff1
 |------------------------|----------------|-------------------|--------------------|
 |------------------------|-3--x-x-3-------|-------------------|-3--------3---------|
 |-------2----------------|-2--x-x-0-------|---2---------------|-2--------0---------|
 |-----2---5^4^2-4^2------|-0--x-x-0-------|-2---5^4^2-4^2-----|-0--------0---------|
 |-----0-------------3^0--|----------------|-0-------------3^0-|--------------------|
 |-3^b--------------------|--------3---3^b-|-------------------|-----0-2--3---0-3^b-|

 |--------------------|----------------|
 |--------------------|-3--3--3--3-----|
 |---2----------------|-2--0--2--0-----|
 |-2---5^4^2-4^b^4--2-|-0--0--0--0-----|
 |-0------------------|----------------|
 |--------------------|----------3-----|

---------|--------------|-------------|
---------|-3--3-3--3-3--|-------------|
---------|-2--2-0--0-2--|-------------|
-(2)-----|-0--0-0--0-0--|-------------|
-(2)-----|--------------|------0-3^4--|
-(0)-----|------3--3----|-------------|

 verse riff
 |-----------------|-------------------|----------5---------|---------------------|
 |-----------------|----7-8---7-8------|----------5---------|-----3---------------|
 |---2---2-2-------|----7-7---7-7-2-2--|----2-----2---------|---0---4~~~----------|
 |---2---4-2-------|----7-7---7-7-2-2--|----2-----2---2--4--|-5-----------2-------|
 |-0---0---0-0-7-8-|-9------------0-0--|--0----0------------|----------------3^0--|
 |-----------------|-------------------|--------------------|---------------------|

 |----------------------|----7----5----------|----------------|-------------||
 |--------------------6\|5---5----5----------|----------------|-------------||
 |-2-----2-----2--2---6\|5---5----5----------|----2-----2-----|-------------||
 |-2-----4-----2--2---5\|4---4----4------2---|----4-----2-----|--------2----||
 |-0--0--0--0--0--0-----|------------0---0---|-0--0--0--0--0--|--------2----||
 |----------------------|--------------------|----------------|-3-2-0--0----||

 play riff1and verse riff....its a very basic blues type song...just listen to it
 and you'll get hows its put together..not too difficult.

 solo(w/ slide@fingers)
 |-12----------------|---------------0--------|-----15-15-15-15----|-12\8---7--------|
 |----13/----/12-10--|-13-13----10------------|--------------------|----------10-----|
 |-------------------|------------------------|-/14----------------|--------------7--|
 |-------------------|-----------------10/11--|--------------------|-----------------|
 |-------------------|------------------------|--------------------|-----------------|
 |-------------------|------------------------|--------------------|-----------------|

 |--------17\--------/17--|---20~~~~~~~~~~~\-|
 |------------13--10------|------------------|
 |------------------------|------------------|
 |-10/11------------------|------------------|
 |------------------------|------------------|
 |------------------------|------------------|

 |----------------------17-|-20\17^15-17\15^12-15\-|
 |-13^12^10--13--10--------|-----------------------|
 |-------------------12----|-----------------------|
 |-------------------------|-----------------------|
 |-------------------------|-----------------------|
 |-------------------------|-----------------------|

 |---------------------|----------|-/17--14/20-----|-(20)\------------||
 |-12---12-------------|-9---9/---|----------------|--------13\-------||
 |--------/12\9~~~~~~~~|---9------|----------------|------------------||
 |---------------------|----------|----------------|------------------||
 |---------------------|----------|----------------|------------------||
 |---------------------|----------|----------------|------------------||

 outro solo
 |------17------------17------------17------------17--------20^b-20^b-20^b-20~~~~~~|
 |-20^b----20^17-20^b----20^17-20^b----20^17-20^b----20^17-------------------------|
 |---------------------------------------------------------------------------------|
 |---------------------------------------------------------------------------------|
 |---------------------------------------------------------------------------------|
 |---------------------------------------------------------------------------------|

 |----------------------------------17------------------------------------------||
 |----------------------------13/14-----17---------------20~~~~~~~~~~~~~~~~-----||
 |-4-2---------4-2--------------------------18~~~~~~~~~~------------------------||
 |-----4-2---------4-2----------------------------------------------------------||
 |---------4-0---------3^4-0----------------------------------------------------||
 |------------------------------------------------------------------------------||

8.REVELATION

(Clean)
Intro         Em                B7/D#                    Em
|------------|-3-----2-----0---|-2----------------------|-3-----2-----0----|
|------------|-----0-----0-----|-----0-h-1--0-----------|-----0-----0------|
|-------3--4-|---0-----0-------|-------------------3--4-|---0-----0--------|
|------------|-2---------------|-1-------------1--------|-2----------------|
|------------|-----------------|------------------------|------------------|
|------------|-----------------|------------------------|------------------|

 B7                    Em                  G
|-2-------------------|-3-----2-----0-h-2-|-3-----------3-p-2--2h3p2p0--|
|-----0---1--0--------|-----0-----0-------|---------0-------------------|
|----------------3--4-|---0-----0---------|------0----------------------|
|-1-------------------|-2-----------------|-----------------------------|
|---------------------|-------------------|----2------------------------|
|---------------------|-------------------|-3---------------------------|

 D              B7/D#                F/Am Am     F#  Em
|--------3-p-2-|-2------------------|---------------|-0--7--6--7--5--------|
|-3------------|----0--1----0-------|-7---5---5---4-|-0--------------8--7--|
|------2-------|---------------3--4-|-5---5---5---2-|-4--------------------|
|-0------------|-1------------------|-7---7---7---4-|-2--------------------|
|--------------|--------------------|---------------|----------------------|
|--------------|--------------------|---------------|----------------------|

                       Verse
                        Em              B7             Harm.
|----7--5\3--5---------|-3-----2-----0-|-2--------------------2-p-0--|
|-8--8--7\5--7---------|-----0-----0---|-----0-h-1--0----------------|
|----------------3-h-4-|---0-----0-----|---2-----------x12x----------|
|----------------------|-2-------------|-1---------------------------|
|----------------------|---------------|-----------------------------|
|----------------------|---------------|-----------------------------|


Em               B7                  Em              G
|-3-----2-----0-|-2---3-------------|-3-----2-----0-|-3--------------------|
|-----0-----0---|---0----1-p-0------|-----0-----0---|------0----3----------|
|---0-----0-----|---------------3/4-|---0-----0-----|----0-----------------|
|-2-------------|-1-----------------|-2-------------|----------------------|
|---------------|-------------------|---------------|-2------------0--2----|
|---------------|-------------------|---------------|-3-----------------0--|


 D              B7/D#                 F/Am Am   F#  Em
|-2----------0-|-2--------------------|------------|----7-6-7p5-------|
|---------3----|-------0-h-1--0-------|-7--5--5--4-|----8---8----8p7--|
|------2-------|-----------------3--4-|-5--5--5--2-|------------------|
|-0------------|----2-----------------|-7--7--7--4-|------------------|
|--------------|-1--------------------|------------|-X----------------|
|--------------|----------------------|------------|-0----------------|


 Harm.                    Em              B7
|------7--5\3--3/5-------|-3-----2-----0-|-2---------------------------|
|------8--7\5--5/7-------|-----0-----0---|----0-1--0h1p0h1p0-----------|
|-------------------3--4-|---0-----0-----|--------------------3--4-----|
|------------------------|-2-------------|-1---------------------------|
|------------------------|---------------|-----------------------------|
|-x5x--------------------|---------------|-----------------------------|


 Em               B7              Em              G
|-3-----2-----0-|-2/3\2h3--------|-3-----2-----0-|-3------3---2---3/5----|
|-----0-----0---|----------1---0-|-----0-----0---|-----------------------|
|---0-----0-----|----------------|---0-----0-----|------0----------------|
|-2-------------|----------------|-2-------------|----0------------------|
|---------------|----------------|---------------|-2---------------------|
|---------------|----------------|---------------|-3---------------------|


                                                                 (Distortion)
 D                   B7/D#          F/Am Am   F#  E5                B5
|---------2---------|-2-------------|------------|---0-----0-|---0---------|
|----3h5------3-----|----1--0-------|-7--5--5--4-|------0----|-0-----------|
|----------------2--|----------3--4-|-5--5--5--2-|-----------|-------4--4--|
|-0-----------------|-1-------------|-7--7--7--4-|-----------|-------4--4--|
|-------------------|---------------|------------|-----------|-------2--2--|
|-------------------|---------------|------------|-0---------|-------------|


 E5                               A#5                      E5
|-0-----0---0====-|------0-------|------------|-----------|-----0---0------|
|-9-----0------0--|------0-------|------------|-----------|-9---0------0---|
|-9---------------|-9=======(9)\-|-3--------1-|--(1)--%---|-9--------------|
|-9---------------|-9=======(9)\-|-3-----3----|-----------|-9--------------|
|-7---------------|-7=======(7)\-|-1----------|-----------|-7--------------|
|-0---------------|-0=======(0)\-|-1----------|-----------|-0--------------|


 E5                A#5                Pick Slide E5
|------------0----|------------|----------------|-----0-----|--------------|
|-9----0----------|----------1-|----------------|-9---0---0-|------0-------|
|-9-------------9-|-3----------|--(1)-----X-----|-9---------|-9=======(9)\-|
|-9-------------9-|-3-----3----|----------X-----|-9---------|-9=======(9)\-|
|-7-------------7-|-1----------|----------X-----|-7---------|-7=======(7)\-|
|-0---------------|-1----------|----------------|-0---------|--------------|


 A#5            Pick Slide E5                        A#5
|--------1=|=(1)----------|-----0-----|-----0-------|---------1------------|
|----------|--------------|-9---0---0-|-9---0--0----|-----1----------------|
|-3========|=(3)----------|-9---------|-9--------9\-|-3--------------------|
|-3========|=(3)----X-----|-9---------|-9--------9\-|-3--------------------|
|-1========|=(1)----X-----|-7---------|-7--------7\-|-1--------------------|
|-1========|=(1)----X-----|-0---------|-0-----------|-1--------------------|


 Pick Slide  B5  C5    A5        B5  C5    A5        C5 B5  G   F#
|-----------|-------------------|-------------------|----------------|
|-(1)-------|-7---8-------------|-7---8-------------|-8--------------|
|-(1)-X-----|-8---9--X--9--X--X-|-8---9--X--9--9--X-|-9--------------|
|-(3)--X----|-9--10--X--7--X--X-|-9--10--X--7--7--X-|10--------------|
|-(1)---X---|-9--10--X--7--X--X-|-9--10--X--7--7--X-|10--9-----------|
|-(1)----X--|-7---8-----5-------|-7---8-----5--5----|-8--7--3~---2~--|

 E5                       Harmonics  Pick Slide E
|-----0---0-----|--------0---------------------|--------0-----|(0)---------|
|-------------0-|----0-----------x5x-----------|--------0---0-|------------|
|---------------|--------------x5x-------X-----|--------------|------------|
|---------------|------------x5x---------X-----|--------------|------------|
|-------------2-|----------x5x-----------X-----|-9h11---------|-9/11~-(11)\|
|-0-------------|-0----------------------------|----0---------|------------|


 A#5                   Pick Slide E5            E             A#5
|------------|-------------------|-----0--0----|-------------|-------------|
|------------|(1)----------------|-9---0-----0-|(0)----------|----------1--|
|-3--------1-|----1h3p1----------|-9-----------|-------------|-3-----------|
|-3-----3----|-----------3--X----|-9-----------|-------------|-3-----3-----|
|-1--1-------|--------------X----|-7-----------|-9/11~-(11)\-|-1--1--------|
|------------|-------------------|-0-----------|-------------|-------------|


           Pick Slide E5                E              A#5
|--------------------|-----0-----------|--------------|---|----------------|
|--------------------|-9---0----0------|(0)-----------|---|----------------|
|(1)-----------------|-9---------------|--------------|-3-|-(3)------------|
|--------------------|-9---------------|--------------|-3-|-(3)------------|
|---------------X----|-7-----------7h9-|-9/11~--(11)\-|-1-|-(1)------------|
|-----0--0--0--------|-0---------------|--------------|-1-|-(1)-----18\----|


 E5           E   Pick Slide A#5 Pick Slide B5 C5 E5    B5 C5  E5
|-----0------|--------------|---|----------|-----------|------------|
|-9---0----0-|(0)-----------|---|-X--------|-7--8------|-7--8-------|
|-9----------|--------------|-3-|--X-------|-8--9--9---|-8--9-------|
|-9----------|--------------|-3-|---X------|-9-10--7-7-|-9-10-\-7-7-|
|-7----------|-9/11~--------|-1-|----X-----|-9-10--7-7-|-9-10-\-7-7-|
|-0----------|---------X----|-1-|-----X----|-7--8--5-5-|-7--8-\-5-5-|


 C5 B5 G   F#    E5      A#5    E               E5      A#5
|--------------||--------------|-------------5-|--------------|
|-8--7---------||--------------|----------5----|--------------|
|-9--8---------||----9\X--3----|---------3--3--|----9\X--3----|
|10--9---------||----9\X--3----|-----2-5-------|----9\X--3----|
|10--9---------||----7\X--1----|---------------|----7\X--1----|
|-8--7--3~--2~-||-0----------1-|-2~------------|-0----------1-|

                    E5      A#5    E                 C5 B5 G   F#
|----------------3-|--------------|---------------5-|----------------|
|-------------5----|--------------|------------5----|-8--7-----------|
|------------3--3--|----9\X--3----|-----------3--3--|-9--8-----------|
|--------2-5-------|----9\X--3----|-------2h5-------|10--9-----------|
|------------------|----7\X--1----|-----------------|10--9-----------|
|-2^(3)~-----------|-0----------1-|-2~-2~-----------|-8--7--3~--2p0--|

(Clean)
 Em
|---------------------|-7-------------------|
|---8-p-7--8-7----7h8-|---10--8-----7-----8-|
|--------------9------|---------(9)---9-----|
|---------------------|-----------------9---|
|---------------------|---------------------|
|-0-------------------|---------------------|

Interlude
 Em                      F#                D
|-----------------------|-----------------|-------------------------|
|-8------(8)--8-----7h8-|-7--------7------|-7--7/8---8/10---10/(8)--|
|-----9---------(9)-----|-----8--8---8----|-------------------------|
|---9-------------------|--------------10-|-0-----------------------|
|-7---------------------|-----------------|-------------------------|
|-----------------------|-----------------|-------------------------|

 G                A7/C#             Am/C            B7
|----------------|------------3----|--------5------|----------------|
|-8------------8-|-8\5-----5-----5-|------5--------|-----4--5--7----|
|---7--------7---|------2----------|----2------2---|----------------|
|-----9----9-----|-----------------|-------------2-|----------------|
|-------10-------|-7\4-------------|-3-------------|-2--------------|
|----------------|-----------------|---------------|----------------|

 Em                             F#            D
|--------------|---------------|-------------|-----------------------|
|-8--8--7--5h7-|-8-------8p7---|-7-----------|----7/8---8/10---10/8--|
|--------------|-------9-----9-|-------8-----|-----------------------|
|--------------|-----9---------|----------10-|-----------------------|
|--------------|---7-----------|-------------|-5---------------------|
|--------------|---------------|-------------|-----------------------|

 G                  A7/C#          Am/C            B7
|-7--------------3-|-------3------|-------5---------|----------------|
|---8----------0---|---5--------5-|-----5----5------|-----4---5---7--|
|-----7------4-----|-----2----2---|---2--------2----|----------------|
|-------9--5-------|--------------|-----------------|----------------|
|------------------|-4------------|-3-------------3-|-2--------------|
|------------------|--------------|-----------------|----------------|

 Em                                   F#              D
|---------------------|--------------|------8--------|-------------------|
|-8\7-8/10-12p10-10\8-|-8----------8-|-7--------7----|---7/8-8/10-10/12--|
|-9\8-9/11-12\11-11\9-|-9-------9----|----8----------|-------------------|
|---------------------|-------9------|---------------|-------------------|
|---------------------|---7-7--------|-------------9-|-5-----------------|
|---------------------|--------------|---------------|-------------------|

 G                    A7/C#             Am/C              B7
|--------------------|-----------------|-----------------|-----------------|
|-12---------------8-|----------8------|--------10-------|-----4---5---7---|
|-12-12----------7---|-9-------------9-|-----9-----9-----|-----------------|
|------12-9----9-----|-------7-----7---|---7---------7---|-----------------|
|-----------10-------|-----------------|---------------7-|-2---------------|
|--------------------|----9------------|-8---------------|-----------------|

 Em                          F#              D
|-------------|-------------|-------8-------|----------------------|
|-8----7----8-|-8----7----8-|-7-------10----|-----7/8--8/10--10/8--|
|--(9)--------|-------------|------------11-|----------------------|
|-------------|-------------|---------------|-0--------------------|
|-------------|-------------|---------------|----------------------|
|-------------|-------------|---------------|----------------------|

                                                 (Distortion)
 G                  A7/C#              Am/C       Pick Slide
|-7----------------|------------------|----------------------|
|---8------------8-|----------8-------|---------10-----------|
|-----7--------7---|-9--------------9-|-------9-------X------|
|-------9----9-----|-------7--------7-|----7----------X------|
|---------10-------|------------------|---------------X------|
|------------------|----9--------9----|-8--------------------|

 B5 C5  G  F#  E5      A#5                        E5      A#5
|-------------|--------------|-----------------3-|---------------|
|-------------|--------------|-------------5-----|---------------|
|-------------|----9\X--3----|-----------3---3---|----9\X--3-----|
|-4--5--------|----9\X--3----|-------2-5---------|----9\X--3-----|
|-2--3--------|----7\X--1----|-------------------|----7\X--1-----|
|-------3~-2~-|-0----------1-|-2~-2~-------------|-0----------1--|

                      E5      A#5                        C5 B5  G  F#
|------------------3-|--------------|-----------------3-|---------------|
|--------------5-----|--------------|-------------5-----|---------------|
|------------3---3---|----9\X--3----|-----------3---3---|---------------|
|-------2-5----------|----9\X--3----|-------2-5---------|-5--4----------|
|--------------------|----7\X--1----|-------------------|-3--2----------|
|-2~-2~--------------|-0----------1-|-2~-2~-------------|-------3~-2~---|

Solo/Outro
 Em                 E                           Em
|------------------|---------------------------|------------------|
|------------------|-5-------------------------|------------------|
|------------------|-3-------------------------|------------------|
|------------------|-5---------------4h5p4h5p4-|------------------|
|-7----------------|-----------4h5h7-----------|-7\---------------|
|-0-0-0-0--0-0-0-0-|---0-0-0-0-----------------|---0-0-0--0-0-0-0-|

  E     B                Em                  E
|-----------------------|------------------|-----------------------------|
|-5-----4---------------|------------------|-5---------------------------|
|-3-----4--4h5p4-4------|------------------|-3---------------------------|
|-5-----4-------7-7p5p4-|------------------|-5---------------------------|
|-------2---------------|-7\---------------|-----------4h5h7-4h5p4h5p4---|
|---0-0-----------------|---0-0-0--0-0-0-0-|---0-0-0-0-------------------|

 Em                  E    B7       B
|------------------|--------------|----------------------------------|
|------------------|-5-----4------|-------------------------4h5p5h4--|
|------------------|-3-----2------|-----------------4h5p4h5----------|
|------------------|-5-----4------|-1h2p1h2-4h5p5h5------------------|
|-7\---------------|------(2)-----|----------------------------------|
|---0-0-0--0-0-0-0-|---0-0-----7\-|----------------------------------|

|---------7h8p7h8-11h12p11h12-12h14p12/(14)-|
|-7h8p7h8-----------------------------------|
|-------------------------------------------|
|-------------------------------------------|
|-------------------------------------------|
|-------------------------------------------|

|-14h15p14h15-15h17p15h17-17h19p17h19-19h20p19-|-17-19-15-19-14^------|
|----------------------------------------------|----------------17\---|
|----------------------------------------------|----------------------|
|----------------------------------------------|----------------------|
|----------------------------------------------|----------------------|
|----------------------------------------------|----------------------|

                                                B
|-----7-8-7h8p7---7-10-|-8-7-8p7----7----------|-----------------|
|---8----------10------|---------10--10-8p7----|-----------------|
|-9--------------------|--------------------10-|-8~-8/14~-14/20--|
|----------------------|-----------------------|-----------------|
|----------------------|-----------------------|-----------------|
|----------------------|-----------------------|-----------------|

                     Em
|----22-20-19~19~19-|-22p20p19--19---------------------------------|
|-------------------|---------22--22p20p19-------------------------|
|-------------------|---------------------21\16h17p16--------------|
|-20~---------------|--------------------------------19-17p16\14---|
|-------------------|-------------------------------------------17-|
|-------------------|----------------------------------------------|

                                                B
|----------------------------------------------|----------------------|
|----------------------------------------------|----------------------|
|----------------------------------------------|----------------------|
|-14h15p14--14-----------14h15p14--------------|----------------------|
|---------17--17-14h15h17--------17-15p14------|-----------14---------|
|----------------------------------------17-15-|-14~--15h17--17p15-14-|

             C
|------------12h13h15p13p12-10h12p10----------------7h8h10/(12)-|
|-----------------------------------13p12p10-7h8h10-------------|
|---------------------------------------------------------------|
|---------------------------------------------------------------|
|---------------------------------------------------------------|
|-(14)^(15)~----------------------------------------------------|

                                     B
|-12-0-0-0-10-0-0-0-8-0-0-0-7-0-0-0-|-5h7p5-5--------------------|
|-----------------------------------|------8-8p7p5-5-------------|
|-----------------------------------|-------------7-7p5-4--------|
|-----------------------------------|--------------------7p5p4---|
|-----------------------------------|--------------------------7-|
|-----------------------------------|----------------------------|

   Harmonic     Em
|--------------|---------------------|---------------------|
|--------------|---------------------|---------------------|
|-4------------|---------------------|-------------4h5p4h5-|
|----%7%--5--4-|-------------4h5p4h5-|---------------------|
|--------------|-7\------5-7---------|-7\------5-7---------|
|--------------|---0-0-0-------------|---0-0-0-------------|

                         B               Em           D/F#
|-----------------------|---------------|-0----------|----------------|
|-----------------------|---------------|-8----------|----10----------|
|-----------------------|---------------|-9----------|-----7----------|
|-------------4h5p4h5p4-|-------4h5-4---|-9----------|--------------7-|
|-7\------5-7-----------|-6--7--------7-|-7---7-9-10-|-9-9---9-9-10---|
|---0-0-0---------------|---------------|-0----------|----------------|

 G5             B                    Em     Full  D/F#
|--------------|--------------------|------------|------------------|
|-8--8---------|--------------------|------------|------10----------|
|-7--7---------|--------------------|------------|-------7----------|
|-5--5--7-9/10-|-9-9/13-13/16-(16)\-|-9----------|-----7------------|
|-5--5---------|--------------------|-7--7-9-10v-|-9-9-----9-10-11--|
|--------------|--------------------|-0----------|------------------|

 G5                      B       Harmonic  Em           D/F#
|-----------------------|-----------------|------------|---------------|
|-----------------------|-----------------|------------|----10---------|
|---------12------------|-----------------|------------|-----7---------|
|-----12----------------|----------%16%~\-|-9----------|---7-----------|
|-10---------/14--14/15-|-14-14/16--------|-7---7-9-10-|-9-----9-10-12-|
|-----------------------|-----------------|-0----------|---------------|

 G5              B5 C5 C#5      D5 D#5 E  E5
|---------------|-7--8--9=|=(9)--5--6--0-|---|
|---------------|-7--8--9=|=(9)--7--8--0-|---|
|-12--12--(12)\-|-8--9-10=|(10)--7--8--1-|---|
|-12--12--(12)\-|-9-10-11=|(11)--7--8--2-|---|
|-10--10--(10)\-|-9-10-11=|(11)--5--6--2-|-7-|
|---------------|-7--8--9=|=(9)--5--6--0-|-0-|

Notes:
      Mute the open E string with your palm during the solo.
      Use a little bit of flange on the interlude.

9.STEAL AWAY

Intro:
e|--------------------------------------------------------------|
B|--------------------------------------------------------------|
G|-----9-----7-----9-----7-----9/----5-----3------------4-4-----|
D|-----9-----7-----9-----7-----9/----5-----3------------4-4-----|
A|------------------------------------------------4-3-4-2-2-----|
E|-0-0---7-9---9-7---7-9---9-7---3-3---3-5---3-5--2-1-2-----3-2-|


Verse:
e|----------------------------------------------------------3--|
B|--------------------------------------8--10--12--10-------3--|
G|-----9-----9-----9-----9-----7/-9-----9--11--12--11-------0--|
D|-----9-----9-----9-----9-----7/-9--0----------------------0--|
A|-------------------------------------------------------------|
E|-0-0---0-0---0-0---0-0---0-0-------------------------0-2--3--|

Verse Continued:
e|-----------------------------------------------------------10----------|
B|-----------------------------------------------------------12----12----|
G|-----------------4-4-2-2^-2-2-2--9----7----9-------7-9-----12-11-12-11-|
D|-----------------4-4-------------9----7----9-------7-9--0-----0-----0--|
A|-----3-2-0-------2-2------------------------------------------0-----0--|
E|-0-3-------3-2-0----------------0--0-0--0-0--0-0--0--------------------|

Verse end:
e|-3-----------------------------------|
B|-3-----------------------------------|
G|-0----------------------4----4-5--5-5|
D|-0----------------------4--4---------|
A|----------3-2-0---------2------------|
E|-3---0-3---------3-2-0---------------|

Chorus:
e|-----------------------------|------------------------------|
B|-----9-----------------------|-----9------------------------|
G|-----9-------------9---------|-----9-------------9----------|
D|-----9--9-0----7-9---9-7---7-|-----9--9-0----7-9---9-7------|
A|-----7--7---7------------7---|-----7--7---7------------7--0-|
E|-0-0-------------------------|-0-0--------------------------|
 |_Repeat this Riff 2 times^___| ...  and then play this


Sorry, I have no solo for you...  Wimper...
Chorus End:
Sorry folks, I can't figure it out...  if anyone knows, then please use the "Correct This Tab" option...

Interlude:
e|-------------------------------------------------------------|
B|-------------------------------------------------------------|
G|-4---2----4-----2-----4----2---4-----2-----4-----2-----------|
D|-4---2----4-----2-----4----2---4-----2-----4-----2-----------|
A|--0-0--0-0--0-0---0-0---0---0----0-0---0-0---0-0---0-0-------|
E|-------------------------------------------------------19/p0-|

Bridge:
e|-----------3-3-----------------------------------------------------|
B|-----------3-3--15--15------------------------15-X-14-----10-10-11-|
G|-9--16-14--0-0--14--14--------9-16--14-14-12--14-X-14-----10-11-12-|
D|-9--16-14--0-0--14--14--16-16-9-16--14-14-12--14-X-14--12----------|
A|-7--14-12-------12--12--14-14-X-14--12-12-10--12-X-12--------------|
E|-0---------3-3----------------0------------------------------------|

Solo:
e|----------13^-13-10------------------------------------3------------------|
B|-12-----------------13-11---13-11-11-3-4-3--6-3-6-3-----5-2-5-2--2--------|
G|-12--12-0-----------------12------------------------------------3-3-3-----|
D|-------------------------------------------------------------------5--5-2-|
A|-----------------------------------------------------4--------------------|
E|--------------------------------------------------------------------------|

e|------------------------------------------------9-12-9-12-9-12-9-12-9-7---|
B|-----------------------------------------8-11-8------------------------10-|
G|-----------------------------------6-9-6----------------------------------|
D|-5-2-2------------------------5-8-5---------------------------------------|
A|----4-1-4-1-4--1---------4-7-4--------------------------------------------|
E|-------------3--3-0-3-6-3-------------------------------------------------|

e|-----7-----------------------------------------7---------------------------|
B|-10^--10-7-----------------------0--22b----------10-7----------------------|
G|-----------10-9-7^----------9/21-0------2-2-2-8------9-7-------------------|
D|------------------9-8-7-7/6-----------------------------9-7----------------|
A|-----------------------------------------------------------9-8-7-----------|
E|----------------------------------------------------------------10-9-8-7-6-|
Comments