Ozzy Osbourne - Bark At The Moon Chords & Tabs

 

Bark At The Moon Chords & Tabs

Ozzy Osbourne Chords & Tabs

Version: 1 Type: Tab 1 rating
1 star 2 stars 3 stars 4 stars 5 stars
comments

Bark At The Moon Tab

This is my second tab on this site. These tabs are absolutely 100% correct.
Straight from the book, hope you enjoy them.

Standard tuning

Tabbed by: Colby Elder

Intro/Verse

    s  P.M-----|  P.M-----|   P.M----|  P.M-----| PM-----------| P.M------|
e-------------------------------------------------------------------------------
B--8/10---------10---------10--------------------8------------------------------
G--7/9----------9----------9----------9----------9--------------7----------7----
D--5/7----------7----------7----------7----------7--------------5----------5----
A-------0-0-0-0----0-0-0-0----0-0-0-0----0-0-0-0----0-0-3-0-0------0-0-0-0------
E-------------------------------------------------------------------------------

 P.M-----|   PM-----| P.M  P.M  P.M  P.M-|    P.M------| P.M------| PM-------|
e-------------------------------------------------------------------------------
B-----------------------------------------8-10---------10---------10---------8--
G---------7---------10---10---10---10-----7-9----------9----------9----------9--
D---------5---------9----9----9----9------5-7----------7----------7----------7--
A-0-0-0-0----0-0-0-0--0-0--0-0--0-0---0-0------0-0-0-0----0-0-0-0----0-0-0-0----
E-------------------------------------------------------------------------------

 P.M------| P.M------| P.M-----| P.M-----| P.M---| 
e-------------------------------------------------------------------------------
B---------8---------------------------------------------------------------------
G---------9-----------7---------7---------7-------------------------------------
D---------7-----------5---------5---------5-------------------------------------
A-0-0-0-0---0-0-3-0-0---0-0-0-0---0-0-0-0---0-0---1-0-1-3-1-0-------------------
E-------------------------------------------------------------3-1---------------

Figure 2

Four performances. Youll recognize them when you hear them.
You cant downstroke this. it requires precise alternate picking.

 P.M-------------------------------------|
e-------------------------------------------------------------------------------
B--------------------------------------------------5------5-6(b)----------------
G------------------------------------------5---5-7---5-7------------------------
D--------------------------------5-8-5-7-8---7----------------------------------
A---------------5--------5-8-5-8------------------------------------------------
E---6--5--6--8-----6--8---------------------------------------------------------

 P.M-----------------------------------------|
e-------------------------------------------------------------------------------
B---------------------------------------------------------------8-8(b)----------
G----------------------------------------------7----7-9-10-9-10-----------------
D---------------------------------7--8-7-8-10----10-----------------------------
A--------------7--------7-10-7-10-----------------------------------------------
E-8--6--8--10-----8--10---------------------------------------------------------

[ Tab from: http://www.guitartabs.cc/tabs/o/ozzy_osbourne/bark_at_the_moon_tab.html ]
e--------------------------------------------------------------------8-10--10/12
B-------------------------------------------------8----8-10-11-10-11------------
G--------------------------------------7-9-7-9-10---10--------------------------
D--------------------7----7--8-10-8-10------------------------------------------
A-7----7-8-10-7-8-10---10-------------------------------------------------------
E---10--------------------------------------------------------------------------


(really really fast)
e-1312p10----101213h15131211------1215161513\12------121315/181615----------15~-
B--------1311---------------151315-------------151315-------------1817151718----
G-------------------------------------------------------------------------------
D-------------------------------------------------------------------------------
A-------------------------------------------------------------------------------
E-------------------------------------------------------------------------------


Outro.

This whole thing is one big trill. Its not easy to do. once again,
alternate picking is required to do this properly.

e-8\7-7-7-8\7-8\7-7-7-8\7-8\7----7-10\7---7-10\7-10\7-7-------10-7---8----------
B-----------------------------10--------8---------------8-8-8------8------------
G-------------------------------------------------------------------------------
D-------------------------------------------------------------------------------
A-------------------------------------------------------------------------------
E-------------------------------------------------------------------------------

e-12\8----8-12\8-12\8----8-12\8-12\8----8-10\7---7-10\7-10\7---7-10\7-10\7-7----
B-------------------------------------------------------------------------------
G------10-------------10-------------10--------9-------------9------------------
D-------------------------------------------------------------------------------
A-------------------------------------------------------------------------------
E-------------------------------------------------------------------------------

e-8\7----7-8\7-8\7----7-8\7-8\7----7-10\7---7-10\7-10\7---7-10\7-10\7-7-8-------
B-----10-----------10-----------10--------8-------------8-----------------------
G-------------------------------------------------------------------------------
D-------------------------------------------------------------------------------
A-------------------------------------------------------------------------------
E-------------------------------------------------------------------------------

e-12\8----8-12\8-12\8----8-12\8-12\8-8-13\12\10-12-10----------7/8\7----7-------
B------10-------------10------------------------------13-12-10-------10---10\8--
G------------------------------------------------------------------------------9
D-------------------------------------------------------------------------------
A-------------------------------------------------------------------------------
E-------------------------------------------------------------------------------

and end on:

e-----
B--10~
G-----
D-----
A-----
E-----


Well thats it. I hope you enjoy this tab,
i think this one of the best songs ever written by ozzy. 

if you want any other ozzy tabs, mail me at
proud_to_be_canadaian@hotmail.com and i will post them on this site.
Comments