Ozma - Shooting Stars Chords & Tabs

 

Shooting Stars Chords & Tabs

Ozma Chords & Tabs

Version: 1 Type: Tab 0 ratings
1 star 2 stars 3 stars 4 stars 5 stars
comments

Shooting Stars Tab

   
Intro
Gtr. 1 (rhythm): Play 5x
e|--------------------------------------------------------------------|
B|--------------------------------------------------------------------|
G|-9--9-------------------5-5-5-5-5-5-5-5-----------------------------|
D|-9--9-4-4--5-5-5-5-5-5--5-5-5-5-5-5-5-5-7-7-7-7-7-7-7-7-7-----------|
A|-7--7-4-4--5-5-5-5-5-5--3-3-3-3-3-3-3-3-7-7-7-7-7-7-7-7-7-----------|
E|------2-2--3-3-3-3-3-3------------------5-5-5-5-5-5-5-5-5-----------|
                          ^bass starts here
                      
Gtr. 2 (lead):
e|--0-9-7----------0-9-7------------------7-------------0-9-7---------|
B|--------9r-------------9--9h10p9-7--7-9----7--5-------------9~------|
G|--------------------------------------------------------------------|
D|--------------------------------------------------------------------|
A|--------------------------------------------------------------------|
E|--------------------------------------------------------------------|

e|--0-9-7-----------------|
B|--------9--9h10p9-7h----|
G|------------------------|
D|------------------------|
A|------------------------|
E|------------------------|

PRE-VERSE                         3x
e|-------------------------|-------------------------------|
B|-------------------------|-------------------------------|
G|------7-9--9-9-9-9-9-9-9-|-------------------------------|
D|-5-5--7-9--9-9-9-9-9-9-9-|--7--7-7--5-5--9--9-9--7-7--5--|
A|-5-5--5-7--7-7-7-7-7-7-7-|--3--3-3--3-3--5--5-5--5-5--5--|
E|-3-3---------------------|----------------------------3--|
                                                        ^let ring
VERSE
"I finally feel at ease..."
                                  e|------|
                                  B|------|
                                  G|-5----|
                                  D|-5-5r-|
                                  A|-3-5r-|
no guitar during verse except for E|---3r-|between lines of lyrics.
[ Tab from: http://www.guitartabs.cc/tabs/o/ozma/shooting_stars_tab.html ]
PRE-CHORUS
                                                             2x
e|--------------------------------------------------------------------|
B|--------------------------------------------------------------------|
G|-5-5-5-5-5-5-5-5----------------------------------------------------|
D|-5-5-5-5-5-5-5-5--7-7-7-7-7-7-7-7--5-5-5-5-5-5-5-5-5-5-5-5-5-5-5-5--|
A|-3-3-3-3-3-3-3-3--7-7-7-7-7-7-7-7--5-5-5-5-5-5-5-5-5-5-5-5-5-5-5-5--|
E|------------------5-5-5-5-5-5-5-5--3-3-3-3-3-3-3-3-3-3-3-3-3-3-3-3--|
       
Gtr. 1 (rhythm):  
e|-----------------------------------------------------------|
B|-----------------------------------------------------------|
G|-5-5-5-5-5-5-5-5--7-7-7-7-7-7-7-7--9--9--------------------|
D|-5-5-5-5-5-5-5-5--7-7-7-7-7-7-7-7--9--9--4-4--5-5-5-5-5-5--|
A|-3-3-3-3-3-3-3-3--5-5-5-5-5-5-5-5--7--7--4-4--5-5-5-5-5-5--|
E|-----------------------------------------2-2--3-3-3-3-3-3--|

e|----------------------------------|
B|----------------------------------|
G|-5-5-5-5-5-5-5-5------------------|
D|-5-5-5-5-5-5-5-5-7-7-7-7-7-7-7-7--|
A|-3-3-3-3-3-3-3-3-7-7-7-7-7-7-7-7--|
E|-----------------5-5-5-5-5-5-5-5--|  

Gtr. 2 (lead):
e|--0-9-7-----------------|
B|--------9--9h10p9-7h----|
G|------------------------|
D|------------------------|
A|------------------------|
E|------------------------|

CHORUS
                                                               2x
e|--------------------------------------------------------------------|
B|--------------------------------------------------------------------|
G|-9-9-9-9-9-9-9-9-----------------5-5-5-5-5-5-5-5-5-7-7-7-7-7-7-7-7--|
D|-9-9-9-9-9-9-9-9-5-5-5-5-5-5-5-5-5-5-5-5-5-5-5-5-5-7-7-7-7-7-7-7-7--|
A|-7-7-7-7-7-7-7-7-5-5-5-5-5-5-5-5-3-3-3-3-3-3-3-3-3-5-5-5-5-5-5-5-5--|
E|-----------------3-3-3-3-3-3-3-3------------------------------------|

Then play:
PRE-VERSE RIFF
VERSE
PRE-CHORUS
CHORUS twice
PRE-VERSE RIFF with this different ending:
                                                          2x
e|----------------------------------------------------------|
B|----------------------------------------------------------|
G|----------------------------------------------------------|
D|--7--7-7--5-5--9--9-9--7-7--10-10-10-9-9------------------|
A|--3--3-3--3-3--5--5-5--5-5--7--7--7--7-7--10-9-7-5--------|
E|---------------------------------------------------7-5-3--| 

e|----------------|
B|----------------|
G|-5-5--4/5\4--2--|
D|-5-5--4/5\4--2--|
A|-3-3--2/3\2--0--|
E|----------------|
               ^let ring
Comments