Ozma - Rocks Chords & Tabs

 

Rocks Chords & Tabs

Ozma Chords & Tabs

Version: 1 Type: Bass Tab 0 ratings
1 star 2 stars 3 stars 4 stars 5 stars
comments

Rocks Bass Tab

   
Ozma - Rocks
Tabbed by Jason The Great (DAWgAWD@HoTMaiL.com)

Tuning:  1/2 step down

INTRO
Gb|-----------------------------------------------------------------|
Db|-------------------------------------------------5-5-4-4-2-2-0-0-|
Ab|---------3-3-5-5---------3-3-5-5---------3-3-5-5-----------------|
Eb|-3-3-3-3---------3-3-3-3---------3-3-3-3-------------------------|

Gb|-----------------------------------------------------------------|
Db|-----------------------------------------------------------------|
Ab|---------3-3-5-5---------3-3-5-5---------3-3-5-5-----------------|
Eb|-3-3-3-3---------3-3-3-3---------3-3-3-3---------3-3-2-2-3-3-5-5-|

FIRST VERSE
Gb|-----------------------------------------------------------------|
Db|-----------------------------------------------------------------|
Ab|---------3-3-5-5---------3-3-5-5---------3-3-5-5---------3-3-5-5-|
Eb|-3-3-3-3---------3-3-3-3---------3-3-3-3---------3-3-3-3---------|

Gb|-----------------------------------------------------------------|
Db|-5-5-5-5---------5-5-5-5---------5-5-5-5---------5-5-5-5---------|
Ab|---------3-3-5-5---------3-3-5-5---------3-3-5-5---------3-3-5-5-|
Eb|-----------------------------------------------------------------|

FIRST CHORUS
Gb|--------------------------------------------|
Db|--------------------------------------------|
Ab|------------------3-5-5-5-------------------|
Eb|-0-0-0-0--3-5-5-5---------2-3-3-3-3-2-2-2-2-|

Gb|--------------------------------------------|
Db|--------------------------------------------|
Ab|------------------3-5-5-5-----------3-3-5-5-|
Eb|-0-0-0-0--3-5-5-5---------2-3-3-3-3---------|

SECOND VERSE

Gb|-----------------------------------------------------------------|
Db|-----------------------------------------------------------------|
Ab|---------3-3-5-5---------3-3-5-5---------3-3-5-5---------3-3-5-5-|x2
Eb|-3-3-3-3---------3-3-3-3---------3-3-3-3---------3-3-3-3---------|

SECOND CHORUS
Gb|--------------------------------------------|
Db|--------------------------------------------|
Ab|------------------3-5-5-5-------------------|x2
Eb|-0-0-0-0--3-5-5-5---------2-3-3-3-3-2-2-2-2-|
[ Tab from: http://www.guitartabs.cc/tabs/o/ozma/rocks_btab.html ]
BRIDGE
Gb|----------------------------------------------------------------|
Db|----------------------------------------------------------------|
Ab|----------------------------------------------------------------|
Eb|-0-0-0-0-0-0-0-0-3-3-3-3-3-3-3-3-5-5-5-5-5-5-5-5---8-0-0-10-0-0-|

Gb|---------------------------------------------------------------------|
Db|---------------------------------------------------------------------|
Ab|---------------------------------------------------------------------|
Eb|-12-12-12/-0-0-0-0-3-3-3-3-3-3-3-3-5-5-5-5-5-5-5-7-7-7-7-10-10-10-10-|

Gb|------------------------------------------|
Db|------------------------------------------|
Ab|------------------3-5-5-5-----------------|
Eb|-12-12-12-3-5-5-5---------2-3-3-3-2-2-2-2-|

Gb|--------------------------------------------|
Db|--------------------------------------------|
Ab|------------------3-5-5-5-------------------|
Eb|-0-0-0-0--3-5-5-5---------2-3-3-3-3-2-2-2-2-|

CHORUS (same as first)

OUTRO VERSE

Gb|-----------------------------------------------------------------|
Db|-------------------------------------------------5-5-4-4-2-2-0-0-|
Ab|---------3-3-5-5---------3-3-5-5---------3-3-5-5-----------------|
Eb|-3-3-3-3---------3-3-3-3---------3-3-3-3-------------------------|

Gb|-----------------------------------------------------------------|
Db|-----------------------------------------------------------------|
Ab|---------3-3-5-5---------3-3-5-5---------3-3-5-5-----------------|
Eb|-3-3-3-3---------3-3-3-3---------3-3-3-3---------3-3-2-2-3-3-5-5-|

Gb|-----------------------------------------------------------------|
Db|-----------------------------------------------------------------|
Ab|---------3-3-5-5---------3-3-5-5---------3-3-5-5---------3-3-5-5-|
Eb|-3-3-3-3---------3-3-3-3---------3-3-3-3---------3-3-3-3---------|

Gb|--------------------------------------------------------------------|
Db|-5-5-5-5---------5-5-5-5---------5-5-5-5----------------------------|
Ab|---------3-3-5-5---------3-3-5-5---------3-3-5-5---------3-3-5-5----|
Eb|-------------------------------------------------3-3-3-3---------3\-|

I'm pretty sure that most if this is correct.  have fun with it.
Comments