Ozma - Korobeiniki Chords & Tabs

 

Korobeiniki Chords & Tabs

Ozma Chords & Tabs

Version: 1 Type: Tab 0 ratings
1 star 2 stars 3 stars 4 stars 5 stars
comments

Korobeiniki Tab

Ozma - Korobeiniki (Tetris theme song / russian song)


~Cheri

1/2 step down
------------------------------
------------------------------
------0-----------------------
----2----------0--------------
-------3-----2------0-2-3-----
-----------------3------------

---0---------------0---------0-5-4---
-----1-3-0-1---0-----1-3-0-1---------
-------------2-----------------------
-------------------------------------
-------------------------------------
-------------------------------------

---0-----------------0-------------0--------- \
-----0-1-3-1-0-----1---3-1-0-0-1-3---1-------  \
---------------2-2---------------------2-2---   \
---------------------------------------------    \
---------------------------------------------     \
---------------------------------------------      \
                                                    \ x2
-----1-5-3-1-0---0-------------0---------           /
---3-----------1---3-1-0-0-1-3---1-------          /
-----------------------------------2-2---         /
-----------------------------------------        /
-----------------------------------------       /
-----------------------------------------      /
[ Tab from: http://www.guitartabs.cc/tabs/o/ozma/korobeiniki_tab.html ]
Bridge
   --0--------------------------------------
   ------------1-----1-0-1h-0---------------
   --------------2------------2-1---2-0-----
   ----------------2--------------2-----2---
   -----------------------------------------
   -----------------------------------------

   -------------------------------
   --1-----1-0-1h-0---------------
   ----2------------2-1-----1-2---
   ------2--------------2-4-------
   -------------------------------
   -------------------------------

---0---------------0---------0-5-4---
-----1-3-0-1---0-----1-3-0-1---------
-------------2-----------------------
-------------------------------------
-------------------------------------
-------------------------------------

---0-----------------0-------------0---------
-----0-1-3-1-0-----1---3-1-0-0-1-3---1-------
---------------2-2---------------------2-2---
---------------------------------------------
---------------------------------------------
---------------------------------------------

-----1-5-3-1-0---0-------------0---------
---3-----------1---3-1-0-0-1-3---1-------
-----------------------------------2-2---
-----------------------------------------
-----------------------------------------
-----------------------------------------



--0----------------------------2--
----0-1-3-1-0------------1-3/5----
--------------2--------2----------
---------------------2------------
----------------------------------
----------------------------------

--0----------5---------8-10-7-5-4-5-5-5--
----1----------6-------------------------
------2-2--------7-7---------------------
-----------------------------------------
-----------------------------------------
-----------------------------------------
Comments