Ozma - Korobeiniki Chords & Tabs

 

Korobeiniki Chords & Tabs

Ozma Chords & Tabs

Version: 1 Type: Bass Tab 0 ratings
1 star 2 stars 3 stars 4 stars 5 stars
comments

Korobeiniki Bass Tab

   
Ozma
Korobeiniki
Tabbed by Jason the Great (DAWgAWD@HoTMaiL.com)

Tuning: 1/2 step down

note: when you see something like "1212", i mean -12-12-, not -1-2-1-2-

there are some parts in this song tabbed for "bass 1" and "bass 2".  in reality, 
both lines are played at once.  he drones the open A while playing the "bass 2" 
lines on the D and G strings.  Dan is pretty good. 

INTRO

bass 1
Gb|-----------------------------------------------------------------|
Db|-----------------------------------------------------------------|
Ab|-0-0-0-0-0-0-0-0-0-0-0-0-0-0-0-0-0-0-0-0-0-0-0-0-0-0-0-0-0-0-0-0-|x2
Eb|-----------------------------------------------------------------|

bass 2
Gb|-9-12------5-7------------|
Db|------10-------5---7-9-10-|
Ab|--------------------------|
Eb|--------------------------|



(guitars come in)
Gb|-----------------------------------------------------------------|
Db|-----------------------------------------------------------------|
Ab|-0-0-0-0-0-0-0-0-0-0-0-0-0-0-0-0-0-0-0-0-0-0-0-0-0-0-0-0-0-0-0-0-|
Eb|-----------------------------------------------------------------|

Gb|-----------------------------------------------------------------|
Db|-----------------------------------------------------------------|
Ab|-0-0-0-0-0-0-0-0-2-2-2-2-2-2-2-2-3-3-3-3-3-3-3-3-7-7-7-7-7-7-7-7-|
Eb|-----------------------------------------------------------------|

FIRST VERSE

Gb|-----------------------------------------------------------|
Db|-----------------------------------------------------------|
Ab|-----------------0-----0-0-0-0-0-----------------0---0---0-|
Eb|-0-----0-0-0-0-0-----------------0-----0-0-0-0-0-----------|

Gb|-----------------------------------------------------------|
Db|-----------------------------------------------------------|
Ab|-5-----5-5-5-3-2-0-0-0-0-0-0---------------------0---0---0-|
Eb|-----------------------------4-2-0-0-0-0-0-0-0-0-----------|

Gb|----------------------------------------------------------------|
Db|----------------------------------------------------------------|
Ab|/11111111111111111212121212121212121411111111----111112/--0---0-|
Eb|---------------------------------------------1212---------------|

Gb|-----------------------------------------------------------|
Db|-----------------------------------------------------------|
Ab|-5-----5-5-5-3-2-0-----0-0-0---------------------0---0---0-|
Eb|-----------------------------4-2-0-0-0-0-0-0-0-0-----------|

CHORUS

Gb|-----------------------------------------------------------------|
Db|-----------------------------------------------------------------|
Ab|-0-0-0-0-0-0-0-0-2-2-2-2-2-2-2-2-3-3-3-3-3-3-3-3-7-7-7-7-7-7-7-7-|
Eb|-----------------------------------------------------------------|

Gb|------------------------------------------------------------|
Db|-------------------------------------------------6-6-6-6-6--|
Ab|-7-7-7-7-7-7-7-7-8-8-8-8-8-8-8-8-9-9-9-9-9-9-9-9------------|
Eb|------------------------------------------------------------|

SECOND VERSE
[ Tab from: http://www.guitartabs.cc/tabs/o/ozma/korobeiniki_btab.html ]
Gb|-----------------------------------------------------------|
Db|-----------------------------------------------------------|
Ab|-----------------0-----0-0-0-0-0-----------------0---0---0-|
Eb|-0-----0-0-0-0-0-----------------0-----0-0-0-0-0-----------|

Gb|-----------------------------------------------------------|
Db|-----------------------------------------------------------|
Ab|-5-----5-5-5-3-2-0-0-0-0-0-0---------------------0---0---0-|
Eb|-----------------------------4-2-0-0-0-0-0-0-0-0-----------|

BRIDGE

bass 1
Gb|-----------------------------------------------------------------|
Db|-----------------------------------------------------------------|
Ab|-0-0-0-0-0-0-0-0-0-0-0-0-0-0-0-0-0-0-0-0-0-0-0-0-0-0-0-0-0-0-0-0-|x3
Eb|-----------------------------------------------------------------|

bass 2
Gb|-17-14----17-16-17-16-14-12----14--12------|
Db|-------14-------------------14---------14--|
Ab|-------------------------------------------|
Eb|-------------------------------------------|

bass 2
Gb|-17-14----17-16-17-16-14-12----11--12--14-|
Db|-------14-------------------14------------|
Ab|------------------------------------------|
Eb|------------------------------------------|

SECOND CHORUS

Gb|-----------------------------------------------------------------|
Db|-----------------------------------------------------------------|
Ab|-0-0-0-0-0-0-0-0-2-2-2-2-2-2-2-2-3-3-3-3-3-3-3-3-7-7-7-7-7-7-7-7-|
Eb|-----------------------------------------------------------------|

Gb|---------9-9------------1010------------1111---------------|
Db|-----9-9-----9-9----1010----1010----1111----1111-----------|
Ab|-7-7-------------8-8-------------9-9------------1111111111-|
Eb|-----------------------------------------------------------|

THIRD VERSE

Gb|----------------------------------------------------|
Db|----------------------------------------------------|
Ab|----------------------------5-5\-------------0-0--0-|
Eb|-0---5-5\---0-0---5-5--5\----------5---0-0----------|

Gb|----------------------------------------------------------------|
Db|----------------------------------------------------------------|
Ab|/11111111111111111212121212121212121411111111----111112/--0---0-|
Eb|---------------------------------------------1212---------------|

Gb|-------------------------------------------------------------|
Db|-------------------------------------------------------------|
Ab|-2-3-5-5-5-5-5-5-3-2-0-0-0-0-0-0-------------------0---0---0-|
Eb|---------------------------------4-2-0-0-0-0-0-0-0-----------|

Gb|-9---------8-9-10-|
Db|---9-10-12--------|
Ab|------------------|
Eb|------------------|

Gb|------------------------|
Db|------------------------|
Ab|----------------------5-|
Eb|-2-0-0-2--0-2-0---0-0---|

OUTRO

(i'm pretty sure this is wrong, try the way it's tabbed in the correction posted)
Gb|-----------------5-7-4-----------|
Db|---------7-------------7-0-------|
Ab|-5-3-0-0---8-5-5-----------0-0-0-|
Eb|---------------------------------|

i'm a teensy bit unsure about the outro, but the rest is close if
not perfect.  enjoy.
Comments