Ozma - Immigration Song Chords & Tabs

 

Immigration Song Chords & Tabs

Ozma Chords & Tabs

Version: 1 Type: Tab 0 ratings
1 star 2 stars 3 stars 4 stars 5 stars
comments

Immigration Song Tab

-------------------------------------------------------------------------------
			     Immigration Song - Ozma
-------------------------------------------------------------------------------

Tabbed by: RK
Email: rkleng@hillsdale.edu

This is most of it. Tune down a half step.

INTRO - guitar 1:

-----------------7----|
--8p7---8p7---10------|
------7-----7---------| * Repeat a lot.
----------------------| * I'm not going to figure this out for you.
----------------------|
----------------------|
  1 + 2 + 3 + 4  +

INTRO - guitar 2 (an approximation):

--------10----------------10------|
-10h12------12--10-10h12------12--|
----------------------------------| *
----------------------------------| *
----------------------------------|
----------------------------------|

VERSES:

--------------------|
--0-----0--0--------|
--0-----0--0---0----| *
--2----/4--0---2----| *
--3----/5--2---0----|
--------------------|
  1 2 3 4  1 2 3 4

BREAK (guitar 1 plays intro underneath):

--12-----------10----------------------------------|
-----10---10h12-------(12)12------------12---------|
-----------------11----------9----9-9/11-----------| 2x
---------------------------------------------------|
---------------------------------------------------|
---------------------------------------------------|

CHORUS - guitar 1:

-----------------------------------------|
--0----0----0----0----0----0----0----0---|
--4----0----4----0----4----0----4----0---|
--4----2----4----2----4----2----4----2---|
-------2---------2---------2---------2---|
--3----0----3----0----3----0----3----0---|

Guitar 2:

----------------------10--------------------------|
--10-listen--------------------listen-------------|
-----for strum -------7-------for strum-----------|
--7-----------------------------------------------|
--------------------------------------------------|
--------------------------------------------------|

SOLO

Guitar 1:
---------------------------------------------------|
---------------------------------------------------|
---------------------------------------------------|
---5-5-5-5p4h5/7----7-7-7-7p5h7/9----5-5-5-5p4h5/7-|
---------------------------------------------------|
---------------------------------------------------|

--------------------|
--------------------|
-----------4-----4-*|
---5p4---7---4-7---*|
-------5------------|
--------------------|

Guitar 2
---------------------------------------------------|
---------------------------------------------------|
-------------------------------------4-4-4-4p2h4/5-| 2nd time thru only
---5-5-5-5p4h5/7----7-7-7-7p5h7/12-----------------|
---------------------------------------------------|
---------------------------------------------------|
[ Tab from: http://www.guitartabs.cc/tabs/o/ozma/immigration_song_tab.html ]
--------------------|
-----------5-----5--|
---4-----7---4-7----| 1st and 2nd time thru
-----7-5-----------*|
--------------------|
--------------------|

Other stuff/Outro

Guitar 1.1

--------------------------------------------------------|
--------------------8---8---8-7-------------------------|
----------------------7---7-----------------------------|
---5-5-5-5-5-5-5-5--------------------------------------|
---5-5-5-5-5-5-5-5--------------------------------------|
---3-3-3-3-3-3-3-3--------------------------------------|

Guitar 2.1

--------------------------------------------------------|
---8---8---8---8-----8---8---8-7------------------------|
-----7---7---7---7-----7---7----------------------------|
--------------------------------------------------------|
--------------------------------------------------------|
--------------------------------------------------------|

Guitar 1.2

---------------------------------------------|
---------------------------------------------|
---------------------------------------------|
---4-4-4-4-4-4-4-4---------------------------|
---5-5-5-5-5-5-5-5---------------------------|
---3-3-3-3-3-3-3-3---------------------------|

Guitar 2.2

---------------------------------------------|
---------------------------------------------|
---4b----------------4-2h4p2p0-2-4/7---------|
---------------------------------------------|
---------------------------------------------|
---------------------------------------------|

Guitar 1.3

-----------------------15----15----15-14-----|
--------------------------15----15-----------|
---------------------------------------------|
---4-4-4-4-4-4-4-4---------------------------|
---5-5-5-5-5-5-5-5---------------------------|
---3-3-3-3-3-3-3-3---------------------------|

Guitar 2.3

------------------------15----15----15-14----|
---------------------------15----15----------|
---4h7-4-------------------------------------|
---------------------------------------------|
---------------------------------------------|
---------------------------------------------|

Then the keyboard or bass does something like this:

---------------------------------------------|
---------------------------------------------|
--------------4h7/9\7------------------------|
--5---5---5h7--------------------------------|
----5---5------------------------------------|
---------------------------------------------|


Guitar 1 power chords (all down strokes)

----------------------|
----------------------|
--5----7-4--2---------|
--5----7-4--2---------|
--3----5-2--0---------|
----------------------|

Guitar 2 thing

--7-7-7-7--10--8-7-8-7-----|
-----------------------8---|
--4-4-4-4---7--5-4-5-4-----|
-----------------------5---|
---------------------------|
---------------------------|

Enjoy.
ryan
Comments