Ozma - Gameover Chords & Tabs

 

Gameover Chords & Tabs

Ozma Chords & Tabs

Version: 1 Type: Tab 0 ratings
1 star 2 stars 3 stars 4 stars 5 stars
comments

Gameover Tab

   
Game Over by Ozma

Tabbed by Aaron of Blasters to Stun

This is a mix of the acoustic video and the acoustic demo versions.

Tune your guitar to Eb Ab Db Gb Bb Eb   (a half-step down)

Intro (G C G C G Em D)

Eb----------------------------------------------------
Bb----------------------------------------------------
Gb--2-4-2-4-5-2-4---2-4-2-4-5-2-4-2-2-4---4-2---------
Db--------------------------------------5-------------
Ab--------------------------------------------5--5-4-(2)
Eb----------------------------------------------------

Eb---------------------------------------------------
Bb---------------------------------------------------
Gb---------------------------------------------2--2--
Db-----------2-4-5---5--5-4------------2-4-5--------5
Ab-----2-3-5-------3-------------2-3-5-------5-------
Eb-3-5-----------------------3-5---------------------

Eb------------------------------
Bb-------------3-5--------------
Gb-------2-4-5-----4--4-3-4--2--
Db-2-4-5-----------------------5
Ab------------------------------
Eb------------------------------

Verse G C G C G Em D (Open chords)

At the end of the verses:

Eb-------
Bb-------
Gb-------
Db-5--5-4
Ab-------
Eb-------

Chorus E D C B a G F# Em D

The first chords are power chords, then depending on the version, it switches to open chords.
[ Tab from: http://www.guitartabs.cc/tabs/o/ozma/gameover_tab.html ]
       E           D            C          B      a
Eb----------------------------------------------------
Bb----------------------------------------------------
Gb-9-9-9-9-9---7-7-7-7-7---5-5-5-5-5---4-4-4-4-2-2-2-2
Db-9-9-9-9-9---7-7-7-7-7---5-5-5-5-5---4-4-4-4-2-2-2-2
Ab-7-7-7-7-7---5-5-5-5-5---3-3-3-3-3---2-2-2-2-0-0-0-0
Eb----------------------------------------------------

Can switch to open chords here....G F# Em D  or use more power chords:

      G            F#          Em          D
Eb----------------------------------------------
Bb----------------------------------------------
Gb-------------------------------------7-7-7-7-7
Db-5-5-5-5-5---4-4-4-4-4---2-2-2-2-2---7-7-7-7-7
Ab-5-5-5-5-5---4-4-4-4-4---2-2-2-2-2---5-5-5-5-7
Eb-3-3-3-3-3---2-2-2-2-2---0-0-0-0-0------------

Second chorus ending and bridge:

Instead of going from G to F# in the progression
go from G to D B Em C Cm  then:

"Is there no peace in your heart...."

G B C D E Eb D C (All power chords, best as just intervals)

Now back to the verse...

The song structure is 

Intro

Verse
Verse
Chorus
Verse
Verse
Chorus (second weird ending)
Bridge
***in the video version: insert a cool solo over G major here***
Verse (quiet, open chords)
Chorus


I didn't see any tabs for this song on the web, so I decided to fill the void
with my attempt.
 This is a fairly accurate tab, but there's a few complex chords that I have
missed, and maybe some other errors.
Please send me comments and corrections via http://listen.to/blasters (post it to
the board if you want).
Comments