Ozma - Denise Chords & Tabs

 

Denise Chords & Tabs

Ozma Chords & Tabs

Version: 1 Type: Chords 0 ratings
1 star 2 stars 3 stars 4 stars 5 stars
comments

Denise Chords

   
E ||----------3-----------------3--------------3----2--------||
B ||------1----------------1--------------1---------1--------||
G ||---3--------------3---------------2-------------2--------||
D ||-------------2----------------0-----------------0--------||
A ||---------------------------------------------------------||
E ||---------------------------------------------------------||


G          C          D            G
Denise washes out the color in her hair

C                   D                 Em                 Am    D
Packs and folds her clothes away with care      Oo-oo-oo ooooo-ooo

G      C             D                     G
Denise smokes a cigarette that's meant for two

C                 D             Em                Am     D
Wonders where she put her other shoe     Oo-oo-oo ooooo-oo


"...Where did it run off to?..."

E ||------------2---------||
B ||---------3------------||
G ||-----2----------------||
D ||--0-------------------||
A ||----------------------||
E ||----------------------||


Em   A   D    G


G      C                 D               Gmaj7
Denise parks her car and stares off into space

C              D               Em                 Am     D
Happy that she found a parking place     Oo-oo-oo ooooo-oo


G          C                D              G
Denise tells the boss she's off to check a price

C                   D             Em                  Am      D
Instead she calls a friend up for advice     Oo-oo-oo ooooo-oo

[ Tab from: http://www.guitartabs.cc/tabs/o/ozma/denise_crd.html ]
"What did she suggest you.."
E ||------------2---------||
B ||---------3------------||
G ||-----2----------------||
D ||--0-------------------||
A ||----------------------||
E ||----------------------||


Em                  A       D                      G
Do about your lying man,  Tryin to do the best he can

   Cm    Fm
Oh woah,  Denise  ...

Em                     A           D                      G
Even if you don't come back   I'm turning up my Marshall stack

     "...For you, Denise.."
E ||----------3-----------------3--------------3----2------------||
B ||------1----------------1--------------1---------1------------||
G ||---3--------------3---------------2-------------2------------||
D ||-1-----------2----------------0-----------------0------------||
A ||-------------------------------------------------------------||
E| |-------------------------------------------------------------||

Musical Interlude:

Gm     Em      Gm      Em    Am      D     Am      Eb+

Em                  A         D                        G
Even in the dark of night, I touch you and it feels so right

   Cm       Em
Oh woah  Denise

"...It's easy to love you.."
E ||------------2---------||
B ||---------3------------||
G ||-----2----------------||
D ||--0-------------------||
A ||----------------------||
E ||----------------------||


G      C           D            G
Denise watches television until 3

                                                                                 C       
        D                 Em                Am    D
And when she turns it off she thinks of me       Oo-oo-oo ooooo-oo


"...It's easy to love you.."
E ||------------2---------||
B ||---------3------------||
G ||-----2----------------||
D ||--0-------------------||
A ||----------------------||
E ||----------------------||
Comments