Ozma - Battlescars Chords & Tabs

 

Battlescars Chords & Tabs

Ozma Chords & Tabs

Version: 1 Type: Tab 0 ratings
1 star 2 stars 3 stars 4 stars 5 stars
comments

Battlescars Tab

   
Battlescars
By Ozma
Standard Tuning dropped 1/2 step

Well, I've used this website a lot, but this is my first contribution.  
Hope you guys enjoy.  Ozma is a cool band.  This is their best song in 
my opinion.  As with all tabs, listen to the song to hear how it goes.
You can go to the official Ozma website to find links to download a
free mp3 of this song.  www.ozmaonline.com  Have fun.

p.s.

If anyone happens to know the name of or how to play that classical 
peice that either Ryen or Jose plays at the end of the song please email 
me.  Thanks.
 
Intro
[ Tab from: http://www.guitartabs.cc/tabs/o/ozma/battlescars_tab.html ]
e|---------------------------------------------------------------------|
b|---------------------------------------------------------------------|
g|-----------------------------------------------6-7-6-----------------|
d|---------------4-5-4---------4-5-7-5-4-----4-7-------9-7-------------|
a|-----------2-5-------7-5---5-----------7-5---------------9-pause-7---|
E|---2-2-3-3---------------7-------------------------------------------|

Repeat

Intro (Part 2) and Chorus

e|-----------------------------------------------------------|
b|-----------------------------------------------------------|
g|-----------------4-4-----------4-4-7-7-7-7---4-4-2-2-2-2---|
d|---4-4-5-5-5-5---4-4-2-2-2-2---4-4-7-7-7-7---4-4-2-2-2-2---|
a|---4-4-5-5-5-5---2-2-2-2-2-2---2-2-5-5-5-5---2-2-0-0-0-0---|
E|---2-2-3-3-3-3-------0-0-0-0-------------------------------|

Solo Over Chorus

e|-------------------------------------------|
b|---10-10-8-8-7-7-------------7-7-8-7-------|
g|-----------------9-7-9-7-------------9-9---|
d|-------------------------9-7---------------|
a|-------------------------------------------|
E|-------------------------------------------|

Verses

Random chord picking

G   Em   Bm   D 

Repeat as necessary

Pre-Chorus

D   Bm   Fm#  A7

Repeat as necessary

Back to chorus

Listen to the song!

-Joe Tanner 
tannerjd@lightspeed.net
Comments