Oxymoron - Get A Gun Chords & Tabs

 

Get A Gun Chords & Tabs

Oxymoron Chords & Tabs

Version: 1 Type: Tab 0 ratings
1 star 2 stars 3 stars 4 stars 5 stars
comments

Get A Gun Tab

Oxymoron's web page: http://www.oxys.de/ (German Street Punk Band)

-----------------------------------------------------------------------------
GET A GUN - Oxymoron 
-----------------------------------------------------------------------------

By: Krag Klages: KlagesKlan@msn.com 

INTRO: 
e|-------------------------------------------------------------------------| 
B|-------------------------------------------------------------------------| 
G|------------9---7-------------9---7-------------9---7---9-9-9-9---7-7-7-7| 
D|--7-7-7-7---9-9-7---7-7-7-7---9-9-7---7-7-7-7---9-9-7---9-9-9-9---7-7-7-7| 
A|--7-7-7-7---7-9-5---7-7-7-7---7-9-5---7-7-7-7---7-9-5---7-7-7-7---5-5-5-5| 
E|--5-5-5-5-----7-----5-5-5-5-----7-----5-5-5-5-----7----------------------| 

e|-------------------------------------------------------------------------| 
B|-------------------------------------------------------------------------| 
G|------------9---7-------------9---7-------------9---7---9-9-9-9---7-7-7-7| 
D|--7-7-7-7---9-9-7---7-7-7-7---9-9-7---7-7-7-7---9-9-7---9-9-9-9---7-7-7-7| 
A|--7-7-7-7---7-9-5---7-7-7-7---7-9-5---7-7-7-7---7-9-5---7-7-7-7---5-5-5-5|
E|--5-5-5-5-----7-----5-5-5-5-----7-----5-5-5-5-----7----------------------| 

VERSE1: 
e|-------------------------------------------------------------------------| 
B|-------------------------------------------------------------------------| 
G|------------9---7-------------9---7-------------9---7---9-9-9-9---7-7-7-7| 
D|--7-X-X-X---9-9-7---7-X-X-X---9-9-7---7-X-X-X---9-9-7---9-9-9-9---5-5-5-5| 
A|--7-X-X-X---7-9-5---7-X-X-X---7-9-5---7-X-X-X---7-9-5---7-7-7-7---5-5-5-5| 
E|--5-X-X-X-----7-----5-X-X-X-----7-----5-X-X-X-----7----------------------| 

e|-------------------------------------------------------------------------| 
B|-------------------------------------------------------------------------| 
G|------------9---7-------------9---7-------------9---7---9-9-9-9---7-7-7-7| 
D|--7-X-X-X---9-9-7---7-X-X-X---9-9-7---7-X-X-X---9-9-7---9-9-9-9---5-5-5-5| 
A|--7-X-X-X---7-9-5---7-X-X-X---7-9-5---7-X-X-X---7-9-5---7-7-7-7---5-5-5-5| 
E|--5-X-X-X-----7-----5-X-X-X-----7-----5-X-X-X-----7----------------------| 

BRIDGE VERSE: 
e|-------------------------------------------------------------------------| 
B|-------------------------------------------------------------------------| 
G|-9-9-9-9-----------------------------------------------------------------| 
D|-9-9-9-9---9-9-9-9---7-7-7-7-7-7-7-7---5-5-5-5---9-9-9-9--7-7-7-7-7-7-7-7| 
A|-7-7-7-7---9-9-9-9---7-7-7-7-7-7-7-7---5-5-5-5---9-9-9-9--7-7-7-7-7-7-7-7| 
E|-----------7-7-7-7---5-5-5-5-5-5-5-5---3-3-3-3---7-7-7-7--5-5-5-5-5-5-5-5| 

CHORUS: 
e|-------------------------------------------------------------------------| 
B|-------------------------------------------------------------------------| 
G|--7---3-5---7---3-5---7---------------------------7---3-5---7---3-5------| 
D|--7-5-3-5---7-5-3-5---7-5-9-7---7-7-7-7-7-7-7-7---7-5-3-5---7-5-3-5------| 
A|--5-5-1-3---5-5-1-3---5-5-9-7---7-7-7-7-7-7-7-7---5-5-1-3---5-5-1-3------| 
E|----3---------3---------3-7-5---5-5-5-5-5-5-5-5-----3---------3----------| 

e|-------------------------------------------------------------------------| 
B|-------------------------------------------------------------------------| 
G|--7----------------------------------------------------------------------| 
D|--7-5-9-7---7-7-7-7-7-7-7-7----------------------------------------------| 
A|--5-5-9-7---7-7-7-7-7-7-7-7----------------------------------------------| 
E|----3-7-5---5-5-5-5-5-5-5-5----------------------------------------------| 

BRIDGE: 
e|-------------------------------------------------------------------------| 
B|-------------------------------------------------------------------------| 
G|------------9---7-------------9---7-------------9---7---9-9-9-9---7-7-7-7| 
D|--7-7-7-7---9-9-7---7-7-7-7---9-9-7---7-7-7-7---9-9-7---9-9-9-9---7-7-7-7| 
A|--7-7-7-7---7-9-5---7-7-7-7---7-9-5---7-7-7-7---7-9-5---7-7-7-7---5-5-5-5| 
E|--5-5-5-5-----7-----5-5-5-5-----7-----5-5-5-5-----7----------------------| 

VERSE2: 
e|-------------------------------------------------------------------------| 
B|-------------------------------------------------------------------------| 
G|------------9---7-------------9---7-------------9---7---9-9-9-9---7-7-7-7| 
D|--7-X-X-X---9-9-7---7-X-X-X---9-9-7---7-X-X-X---9-9-7---9-9-9-9---5-5-5-5| 
A|--7-X-X-X---7-9-5---7-X-X-X---7-9-5---7-X-X-X---7-9-5---7-7-7-7---5-5-5-5| 
E|--5-X-X-X-----7-----5-X-X-X-----7-----5-X-X-X-----7----------------------| 
[ Tab from: http://www.guitartabs.cc/tabs/o/oxymoron/get_a_gun_tab.html ]
e|-------------------------------------------------------------------------| 
B|-------------------------------------------------------------------------| 
G|------------9---7-------------9---7-------------9---7---9-9-9-9---7-7-7-7| 
D|--7-X-X-X---9-9-7---7-X-X-X---9-9-7---7-X-X-X---9-9-7---9-9-9-9---5-5-5-5| 
A|--7-X-X-X---7-9-5---7-X-X-X---7-9-5---7-X-X-X---7-9-5---7-7-7-7---5-5-5-5| 
E|--5-X-X-X-----7-----5-X-X-X-----7-----5-X-X-X-----7----------------------| 

CHORUS: 
e|-------------------------------------------------------------------------| 
B|-------------------------------------------------------------------------| 
G|--7---3-5---7---3-5---7---------------------------7---3-5---7---3-5------| 
D|--7-5-3-5---7-5-3-5---7-5-9-7---7-7-7-7-7-7-7-7---7-5-3-5---7-5-3-5------| 
A|--5-5-1-3---5-5-1-3---5-5-9-7---7-7-7-7-7-7-7-7---5-5-1-3---5-5-1-3------| 
E|----3---------3---------3-7-5---5-5-5-5-5-5-5-5-----3---------3----------| 

e|-------------------------------------------------------------------------| 
B|-------------------------------------------------------------------------| 
G|--7----------------------------------------------------------------------| 
D|--7-5-9-7---7-7-7-7-7-7-7-7----------------------------------------------| 
A|--5-5-9-7---7-7-7-7-7-7-7-7----------------------------------------------| 
E|----3-7-5---5-5-5-5-5-5-5-5----------------------------------------------| 

DURING BASS SOLO: 
e|-------------------------------------------------------------------------| 
B|-------------------------------------------------------------------------| 
G|-----------------------------9-9-9-9---7-7-7-7---------------------------| 
D|--7-7------7-7------7-7------9-9-9-9---7-7-7-7---------------------------| 
A|--7-7------7-7------7-7------7-7-7-7---5-5-5-5---------------------------| 
E|--5-5------5-5------5-5--------------------------------------------------| 

GUITAR SOLO: 
e|-------------------------------------------------------------------------| 
B|-------------------------------------------------------------------------| 
G|--9-9-9-9---11-11-11-11---9-7-5\7---9-7-5\7------------------------------| 
D|--7-7-7-7---9--9--9--9----7-5-3\5---7-5-3\5------------------------------| 
A|-------------------------------------------------------------------------| 
E|-------------------------------------------------------------------------| 

e|-------------------------------------------------------------------------| 
B|-------------------------------------------------------------------------| 
G|--9-9-9-9---11-11-11-11---13-13-13-13-13-13-13-13------------------------| 
D|--7-7-7-7---9--9--9--9----11-11-11-11-11-11-11-11------------------------| 
A|-------------------------------------------------------------------------| 
E|-------------------------------------------------------------------------| 

BRIDGE: 
e|-------------------------------------------------------------------------| 
B|-------------------------------------------------------------------------| 
G|------------9---7-------------9---7-------------9---7---9-9-9-9---7-7-7-7| 
D|--7-7-7-7---9-9-7---7-7-7-7---9-9-7---7-7-7-7---9-9-7---9-9-9-9---7-7-7-7| 
A|--7-7-7-7---7-9-5---7-7-7-7---7-9-5---7-7-7-7---7-9-5---7-7-7-7---5-5-5-5| 
E|--5-5-5-5-----7-----5-5-5-5-----7-----5-5-5-5-----7----------------------| 

BRIDGE VERSE: 
e|-------------------------------------------------------------------------| 
B|-------------------------------------------------------------------------| 
G|-9-9-9-9-----------------------------------------------------------------| 
D|-9-9-9-9---9-9-9-9---7-7-7-7-7-7-7-7---5-5-5-5---9-9-9-9--7-7-7-7-7-7-7-7| 
A|-7-7-7-7---9-9-9-9---7-7-7-7-7-7-7-7---5-5-5-5---9-9-9-9--7-7-7-7-7-7-7-7| 
E|-----------7-7-7-7---5-5-5-5-5-5-5-5---3-3-3-3---7-7-7-7--5-5-5-5-5-5-5-5| 

CHORUS: 
e|-------------------------------------------------------------------------| 
B|-------------------------------------------------------------------------| 
G|--7---3-5---7---3-5---7---------------------------7---3-5---7---3-5------| 
D|--7-5-3-5---7-5-3-5---7-5-9-7---7-7-7-7-7-7-7-7---7-5-3-5---7-5-3-5------| 
A|--5-5-1-3---5-5-1-3---5-5-9-7---7-7-7-7-7-7-7-7---5-5-1-3---5-5-1-3------| 
E|----3---------3---------3-7-5---5-5-5-5-5-5-5-5-----3---------3----------| 

e|-------------------------------------------------------------------------| 
B|-------------------------------------------------------------------------| 
G|-7---------------------------7---3-5---7---3-5---7-----------------------| 
D|-7-5-9-7---7-7-7-7-7-7-7-7---7-5-3-5---7-5-3-5---7-5-9-7--7-7-7-7-7-7-7-7| 
A|-5-5-9-7---7-7-7-7-7-7-7-7---5-5-1-3---5-5-1-3---5-5-9-7--7-7-7-7-7-7-7-7| 
E|---3-7-5---5-5-5-5-5-5-5-5-----3---------3---------3-7-5--5-5-5-5-5-5-5-5| 

ENDS ON: 
e|-------| 
B|-------| 
G|--7-7--| 
D|--7-7--| 
A|--5-5--| 
E|-------| 

============================================================================
Comments