Oxymoron - Concrete Jungle Chords & Tabs

 

Concrete Jungle Chords & Tabs

Oxymoron Chords & Tabs

Version: 1 Type: Tab 0 ratings
1 star 2 stars 3 stars 4 stars 5 stars
comments

Concrete Jungle Tab

                       -CONCRETE JUNGLE-
                     '''''''''''''''''''''
                            OXYMORON
                      tabbed by: matt goolsby

(2-0)-just tap the fret, don't pick. not very loud, just a sort of pre-
riff to the intro/verse.

"2-2" play palm muted.

2->14<-2  strum fast only on the a string, and do a medium slide all the way to 14, then 
medium slide back to 2. listen to the song to see how fast to slide, and how long to 
the notes.

9~12~9~12  trill pretty fast, pick only on the 9s.

e|---------------------------------------------------------------|
b|---------------------------------------------------------------|
g|------------------------------------------------ intro/verse---| x8
d|------------------4---------4-----4------------- play (2-0-2-0-|etc.
a|-(2-0-2-0-2-0)-2----2-0-0-4---2-2---2-0---0-4-2----------------| only the first time.
E|----------------------------------------2----------------------|

|-----------------|
|-----------------|
|-----------------|  intro/chorus x4
|-4-4-------------|
|-2-2-4-4-5-5-7-7-|
|-----2-2-3-3-5-5-|

|---------------------------------------------------------------|
|---------------------------------------------------------------|
|---------------------------------------------------------------|
|---------------------------------------------------------------| verse
|-4---------------------------2-4---------------------------2-4-|
|-2-"2-2-2-2-2-2-2-2-2-2-2-2"-0-2-"2-2-2-2-2-2-2-2-2-2-2-2"-0-2-|

|-------------------------------------------------|
|-------------------------------------------------|
|-------------------------------------------------|
|-----------------------------7-777777------------|
|---------------------------2-5-555555-7-777777-4-|
|-"2-2-2-2-2-2-2-2-2-2-2-2"-0----------5-555555-2-|

|-------------------------------------------------------------|
|-------------------------------------------------------------|
|-------------------------------------------------------------|
|-------------------------------------------------------------|
|---------------------------2-4---------------------------2-4-|
|-"2-2-2-2-2-2-2-2-2-2-2-2"-0-2-"2-2-2-2-2-2-2-2-2-2-2-2"-0-2-|

|-------------------------------------------------|
|-------------------------------------------------|
|-------------------------------------------------|
|-----------------------------7-777777------------|
|---------------------------2-5-555555-7-777777-4-|
|-"2-2-2-2-2-2-2-2-2-2-2-2"-0----------5-555555-2-|

|-------------------------------------------------------------|
|-------------------------------------------------------------|
|-------------------------------------------------------------|
|-------------------------------------------------------------|
|---------------------------2-4---------------------------2-4-|
|-"2-2-2-2-2-2-2-2-2-2-2-2"-0-2-"2-2-2-2-2-2-2-2-2-2-2-2"-0-2-|
[ Tab from: http://www.guitartabs.cc/tabs/o/oxymoron/concrete_jungle_tab.html ]
|-----------------------------------------------|
|-----------------------------------------------|
|-----------------------------------------------|
|-----------------------------------------------| end of verse
|---------------------------2-5-555555-7-777777-|
|-"2-2-2-2-2-2-2-2-2-2-2-2"-0-3-333333-5-555555-|

|-------------------------------------|
|-------------------------------------|
|-------------------------------------| new chorus x4
|-4-444444----------------------------|
|-2-222222-4-444444-5-555555-7-777777-|
|----------2-222222-3-333333-5-555555-|

|-------------------------------------------------------------|
|-------------------------------------------------------------| lead guitar
|-----------------------------9-------------------------------| break/bridge
|-11-11-11-9-7--11-11-11-9/11----11-11-11/9/11-7--7-7---------|
|-----------------------------------------------------11-11-9-|
|-------------------------------------------------------------|

|---------------------------------------------------------------------|
|---------------------------------------------------------------------|
|-----------------------------9-------------------13-13-13-11-9-13-11-|
|-11-11-11-9-7--11-11-11-9/11----11-11-11/9/11/7----------------------|
|---------------------------------------------------------------------|
|---------------------------------------------------------------------|

|---------------------------------------------------------------|
|---------------------------------------------------------------|
|---------------------------------------------------------------| solo.
|-9-------9~12~9~12~9~12~9~12~9~12~9~12~9~12~9------------------|
|----------------------------------------------9-----999-7------|
|----------------------------------------------------------10-9-|

|-----------------------------------------------|
|-----------------------------------------------|
|-----------------------------------------------| end of solo.
|----------------------------9-----9/11-12-11-9-|
|---------------------7--9-7--------------------|
|-10-9-7-5-7-----9-10---------------------------|

|-------------------|
|-------------------|
|-------------------|  end chrous riff (same as intro/chorus)
|-4-4-------------4-| hold last chord at end
|-2-2-4-4-5-5-7-7-2-|
|-----2-2-3-3-5-5---|

|------------------------------|
|------------------------------|
|------------------------------| optional ending/bass part.
|-4--------------------4-----4-|
|-2->14<-2->14<-2------2-----2-|
|------------------------------|

                             SONG ORDER
                         '''''''''''''''''
                           intro/verse x8
                           intro/chorus x4
                           intro/verse x4
                           intro/chorus x4
                               verse
                             new chorus x4
                          lead guitar break
                                 solo
                             new chorus x4
                           intro/verse x4
                             new chorus x3
                   end chorus riff (optional ending)
Comments