Oxymoron - Anti Chords & Tabs

 

Anti Chords & Tabs

Oxymoron Chords & Tabs

Version: 1 Type: Bass Tab 0 ratings
1 star 2 stars 3 stars 4 stars 5 stars
comments

Anti Bass Tab

Oxymoron's web page: http://www.oxys.de/ (German Street Punk Band)

It's all here. 
By David DeSantis skankonice@hotmail.com 

Intro: 
G:-------------------- 
D:-------------------- 
A:--34--34--34---2223- 
E:-------------------- 

Verse: 
G:--------------------------- 
D:-------------------123421-- 
A:4---20---20---4---2------2- 
E:--5---42---42---5---------- 

Pre-Chorus: 
G:---------------------- 
D:-------------9-------- 
A:4-7------4-7---------- 
E:----5-757------------- 
[ Tab from: http://www.guitartabs.cc/tabs/o/oxymoron/anti_btab.html ]
Chorus: 2nd ending: 
G:----------------------------------------|-------6-8-6---6--- 
D:------------------------------9999-6666-|-9-999-------9----- 
A:4444-7777-----------4444-7777-----------|------------------- 
E:----------7777-4444---------------------|------------------- 

Post-Chorus: 
G:------------------ 
D:------------------ 
A:-4---4-22234---2-- 
E:---5---------2---- 

Intro x1 
Verse x2 
Pre-Chorus x1 
Verse x2 
Chorus x2 
Post-Chorus x1 
Verse x2 
Chorus x2 
Intro x1 
Verse x2 
Pre-Chorus x1 
Chorus x2 

End
Comments