Owen - That Mouth Chords & Tabs

 

That Mouth Chords & Tabs

Owen Chords & Tabs

Version: 1 Type: Tab 0 ratings
1 star 2 stars 3 stars 4 stars 5 stars
comments

That Mouth Tab

Owen
"That Mouth"
THE EP
Tabbed By: Andrew D. (fishingthesky00@sbcglobal.net)

DAEAC#E Tuning
Capo on 1st Fret

Main Part
D -2----------4-----------0------------0---------|
A -------------------0---------------------------|
E ----0---0-------0-----0-----0---0-------0---0--|
A ------0------------0----------0-----------0----|
C#-----------------------------------------------|
E -----------------------------------------------|
[ Tab from: http://www.guitartabs.cc/tabs/o/owen/that_mouth_tab.html ]
Part 1
D -----------------------------------------------|
A -----------------------------------------------|
E --4h5------------------------------------------|
A --0--------0-----------------------------------|
C#---------3-------------------------------------|
E -------2---------------------------------------|

Part 2
D -----------------------------------------------|
A -----------------------------------------------|
E -----------------------------------------------|
A -4-4-4-4s2-0-------0---------------------------|
C#---------------3-------------------------------|
E -----------------------------------------------|
Comments