Owen - Breaking Away Chords & Tabs

 

Breaking Away Chords & Tabs

Owen Chords & Tabs

Version: 1 Type: Tab 0 ratings
1 star 2 stars 3 stars 4 stars 5 stars
comments

Breaking Away Tab

Owen
"Breaking Away"
Owen The EP
Andrew/fishingthesky00@sbcglobal.net

DAEAC#E Capo on 6th fret

Verse
D -------------------------0---------|
A --0-----0--------0-----------------|
E ----0-------0--------2--------0----|
A ------0-------0--------0--------0--|
C#--0-------0------0h1---------------|
E ----------------------------0------|
Repeat 3x

D --4--------------------------------|
A ---------0-------------------------|
E-----0--------0---------------------|
A -------0-------0-------------------|
C#--0--------------------------------|
E -----------0-----------------------|
Reapeat 2x
[ Tab from: http://www.guitartabs.cc/tabs/o/owen/breaking_away_tab.html ]
Part Going Into Chorus
D -5-------------4--------2---------2-|
A ------------------------0h2---------|
E ---0---0-------------------0h2h4--4-|
A -----0---------2p0h2h4--------------|
C#-5---------0------------------------|
E ---------0--------------------------|

Chorus (just switch the low D notes between open, 2, and 4)
D --0--------------------------------|
A --------0--------------------------|
E-----4-------0----------------------|
A ------0-------0--------------------|
C#--0--------------------------------|
E ---------0-------------------------|

Sometimes he throws this in the bridge...
D -----------------------------------|
A --0-----0--------0-----------------|
E ----0-------0----------------------|
A ------0-------0---------------2----|
C#--0-------0------0h1-------1p0-----|
E --------------------0h2-2p0--------|
Comments