Overtone - Jenny Chords & Tabs

 

Jenny Chords & Tabs

Overtone Chords & Tabs

Version: 1 Type: Bass Tab 0 ratings
1 star 2 stars 3 stars 4 stars 5 stars
comments

Jenny Bass Tab

imaginary ball rules, so does overtone
g|----------------------|
d|----------------------|
a|-\44-4-44-4-44-4--7---|
e|----------------5--7--|

g|----------------------|
d|----------------------|
a|-44-4-44-4-44-4---7---|
e|----------------5--7--| x3

g|----------------------|
d|----------------------|
a|-44--444---44--444----|
e|----------------------| this is the chorus

[ Tab from: http://www.guitartabs.cc/tabs/o/overtone/jenny_btab.html ]
g|----------------------|
d|----------------------|
a|-\44-4-44-4-44-4--7---|
e|----------------5--7--|

g|----------------------|
d|----------------------|
a|-44-4-44-4-44-4---7---|
e|----------------5--7--| x3

g|----------------------|
d|----------------------|
a|-44--444---44--444----|
e|----------------------| 
then.

g|---------------------------------------------------|
d|---------------------------------------------------|
a|---------------------------------------------------|
e|-222-0-222-0-222-0-2-0-3-- 222-0-222-0-222-0-2-0-5-|
Comments