Overkill - Sonic Reducer Chords & Tabs

 

Sonic Reducer Chords & Tabs

Overkill Chords & Tabs

Version: 1 Type: Tab 0 ratings
1 star 2 stars 3 stars 4 stars 5 stars
comments

Sonic Reducer Tab

                                Sonic Reducer                                   
                                  Overkill

                                           
E||----------------------|------------------|
B||----------------------|------------------|
G||----------------------|------------------|
D||----------------------|------------------|
A||--12--11--------------|------------------|
E||--10--9---------------|------------------|

                                                                
|-----------------------------------|--------------------------|
|-----------------------------------|--------------------------|
|*----------------------------------|--------------------------|
|*----------------------------------|--------------------------|
|---11--11--11--11--11--11--11--11--|--6--6--6--6--6--6--6--6--|
|---9---9---9---9---9---9---9---9---|--4--4--4--4--4--4--4--4--|
[ Tab from: http://www.guitartabs.cc/tabs/o/overkill/sonic_reducer_tab.html ]
                                                                            
--------------------------|---------------------------||-------------------|
--------------------------|---------------------------||-------------------|
--------------------------|--------------------------*||-------------------|
--------------------------|--------------------------*||-------------------|
--7--7--7--7--7--7--7--7--|--4--4--4--4--4--4--4--4---||--2----------------|
--5--5--5--5--5--5--5--5--|--2--2--2--2--2--2--2--2---||--0----------------|

                                                            
-------------------|-------------------|-------------------|
-------------------|-------------------|-------------------|
-------------------|-------------------|-------------------|
-------------------|-------------------|-------------------|
--4----------------|--7----------------|--9----------------|
--2----------------|--5----------------|--7----------------|

                                                                  
|--------------------------------|-------------------------------|
|--------------------------------|-------------------------------|
|*-------------------------------|-------------------------------|
|*-------------------------------|-------------------------------|
|---9/11-11--11--11----11--11----|--9/11-11--11--11----11--11----|
|---7/9--9---9---9-----9---9-----|--7/9--9---9---9-----9---9-----|

                                        3x
-------------------|--------------------||
-------------------|--------------------||
-------------------|-------------------*||
-------------------|-------------------*||
--7----------------|--9-----------------||
--5----------------|--7-----------------||
Comments