Overcast - Two Degrees Below Chords & Tabs

 

Two Degrees Below Chords & Tabs

Overcast Chords & Tabs

Version: 1 Type: Tab 0 ratings
1 star 2 stars 3 stars 4 stars 5 stars
comments

Two Degrees Below Tab

Song: Two Degrees Below
Artist: Overcast
Album: Expectational Dilution

Standard E Tuning
This song is roughly in D minor but has many chromatics thrown in.  

Comments or questions: Dblanchard2@charter.net

Riff 1A				 
|--------------|---------------|---|
|--------------|---------------|---|
|--------------|---------------|---|
|--------------|-3-------------|---|
|-2-3-5-6--5-3-|-1-3-3/6-5-3-5-|---|
|-0-1-3-4--3-1-|---1-1/4-3-1-3-|-0-|
           . .                   |__ Let E ring

Riff 1B
|--------------|---------------|
|--------------|---------------|
|--------------|---------------|
|--------------|-3-------------|
|-2-3-5-6*-5-3-|-1-3-3/6-5-3-5-|
|-0-1-3----3-1-|---1-1/4-3-1-3-|

Riff 1C (Play 2 times)
|---|---|---|----------------|
|---|---|---|----------------|
|---|-3-|---|----------------|
|-2-|-3-|-2-|-4---4/5-4------|
|-2-|-1-|-2-|-2-4-2/3-2-1tr2-|
|-0-|---|-0-|---2------------|

Riff 2A 
“Kill the light…”               Ending 2 (no C5 chord)
|-----------------------------|-----|
|-----------------------------|-----|
|---------------------------5-|-----|
|---------------------------5-|-6-5-|
|-2-2-2--2-2-2--2-2-2--2-22-3-|-6-5-|
|-0-0-0--0-0-0--0-0-0--0-00---|-4-3-|
  . . .  . . .  . . .  . ..

Riff 2B
“Forged in darkness…”           Ending 2 (no C5 chord)
|-----------------------------|----------------|
|-----------------------------|----------------|
|---------------------------5-|----------------|
|---------------------------5-|-4---4/5-4------|
|-2-2-2--2-2-2--2-2-2--2-22-3-|-2-4-2/3-2-1tr2-|
|-0-0-0--0-0-0--0-0-0--0-00---|---2------------|
  . . .  . . .  . . .  . ..





Riff 3
“Give in to the peace…”   Ending
|-----------------------|---------|
|-----------------------|---------|
|-----------------------|---------|
|-----------------8\7-5-|---------|
|-8\----------7/8-6\5-3-|-8---5/7-|
|-6\-00-00-00-5/6-------|-6---3/5-|
     .. .. ..

Riff 4A
“And just grow cold…”
|------------------------------|
|------------------------------|
|------------------------------|
|-5-5-5-7\---------------------|
|-3-3-3-5\-2-2-2-2-2-2-2-2-2-2-|
|----------0-0-0-0-0-0-0-0-0-0-|
           . . . . . . . . . .
[ Tab from: http://www.guitartabs.cc/tabs/o/overcast/two_degrees_below_tab.html ]
Riff 4B
|-----------------------|
|-----------------------|
|-----------------------|
|-5-5-5-7\--------------|
|-3-3-3-5\-22-2-2-2-2-2-|
|----------00-0-0-0-0-0-|
           ..   .   .

Riff 5
“Let me stay…”               Ending
|--------------------------|---|
|--------------------------|---|
|-6------5-----6-----5-----|---|
|-6------5-----6-----5-----|-5-| GTR 1
|-4------3-----4-----3-----|-3-|
|--------------------------|---|
|
|--------------------------|---|
|--------------------------|---|
|-----0------0-----0-----0-|---|
|---6------5-----6-----5---|-5-| GTR 2
|-4------3-----4-----3-----|-3-|
|--------------------------|---|

Riff 6
“And just grow cold…”
|-----------------|--------------|-------|
|-----------------|--------------|-------|
|-----------------|--------------|-------|
|-7-5-5/8-7-7-5-4-|--------------|-7-5-4-|
|-5-3-3/6-5-5-3-2-|--------------|-5-3-2-|
|-----------------|-000000000000-|-------|
                    ............



Riff 7
|-----------------------|----------------|
|-----------------------|----------------|
|-----------------------|----------------|
|-5/7--8\7--5/7--8\7--5-|-5/7--8\7--5--8-|
|-3/5--6\5--3/5--6\5--3-|-3/5--6\5--3--6-|
|-----------------------|----------------|

Riff 8A (The single note riff)
|-----------------------------------------|
|-----------------------------------------|
|-----------------------------------------|
|-----------------------------------------|
|-7-8-77--7-8-77--7-8-7-8--10-10--7-8-----|
|-------------------------------------000-|
  . . ..  . . ..  . . . .   .  .  . . ...

Riff 8B
|---------------------------------------------------|
|---------------------------------------------------|
|---------------------------------------------------|
|---------------------------------------12-12-12-12-|
|-7-8-77*--7-8-77*--7-8-7-8--10-10--7-8-10-10-10-10-|
|---------------------------------------------------|
  . . ..   . . ..   . . . .   .  .  . . 

Riff 9
“Kill these memories of me…”
|-----------------------------------------------------|
|-----------------------------------------------------|
|-----------------------------------------------------|
|-9/10-9-9--9/10-9-9--9/10-9-9--9/10-9-9--12-12-12-12-|
|-7/-8-7-7--7/-8-7-7--7/-8-7-7--7/-8-7-7--10-10-10-10-|
|-----------------------------------------------------|

End of song
|---------|
|---------|
|---------|
|-2-2-2-2-|
|-2-2-2-2-|
|-0-0-0-0-|
  . . .
Comments