Outlaws - Green Grass And High Tides Chords & Tabs

 

Green Grass And High Tides Chords & Tabs

Outlaws Chords & Tabs

Version: 6 Type: Tab 0 ratings
1 star 2 stars 3 stars 4 stars 5 stars
comments

Green Grass And High Tides Tab

   
OUTLAWS.TAB Done by Jeffrey Meyers

This TAB transcription was created using TAB MASTER version 1.0
If you enjoy using this program, please consider telling the author
about it: Ofir Zwebner, e-mail: ofirz1@ccsg.tau.ac.il
                    snail-mail: Ehoud 10, Tel Aviv, 69936, Israel

This program is freeware, but it took me some work to make it, so
your financial contribution is welcome.

--------------------------------------------------------------------

  Intro. Outlaws Green Grass & High Tides 2

  Em        C          G        D
e:----------------0--]-------------------]---------------|
B:--------------1----]-----0-3--------3--]---------------|
G:-------0----0------]---0----------2----]-----2-2-------|
D:-----2-------------]----------0-4------]-4-2-2-2-------|
A:---2------3--------]-------------------]-5-0-0-0--2h3--|
E:-0-----------------]-3-----------------]---------------|


   Em       C          G        D
e:----------------0--]-------------------]---------------|
B:--------------1----]-----0-3--------3--]---------------|
G:-------0----0------]---0----------2----]-----2-2-------|
D:-----2-------------]----------0-4------]-4-2-2-2-------|
A:---2------3--------]-------------------]-5-2-0-0--2-3--|
E:-0-----------------]-3-----------------]---------------|


            Fast Tempo

   Em       C             G            D
e:----------------0-----]----------------------2---]--------------|
B:--------------1---1---]-----0-3-0----------3---3-]--------------|
G:-------0----0-------0-]---0-------0------2-------]-----2-2------|
D:-----2----------------]--------------0-4---------]-4-2-2-2------|
A:---2------3-----------]--------------------------]-5-0-0-0--2-3-|
E:-0--------------------]-3------------------------]--------------|


   Gtr.2 Plays chords over arpeggiated chord pattern.
[ Tab from: http://www.guitartabs.cc/tabs/o/outlaws/green_grass_and_high_tides_tab_ver_6.html ]
   Em       C           G        D             A
e:----------------0--]--------------------]-------------------|
B:--------------1----]------0-3--------3--]-------------------|
G:-------0----0------]----0----------2----]------2-2----------|
D:-----2-------------]-----------0-4------]--4-2-2-2----------|
A:---2------3--------]--------------------]--5-0-0-0---0-2-3--|
E:-0-----------------]--3-----------------]-------------------|


    Rhythm  4x   Fast Tempo

    Em   C         G    D       A    D  A
e:--------------]------------]-------------|
B:-----------5--]----3----7--]-------------|
G:-----------5--]----4----7--]--2-2--5--2--|
D:----2------5--]----5----7--]--2-2--5--2--|
A:----2--3-3----]-------5----]--0-0--5--0--|
E:--0-----------]--3---------]-------------|


    Verse rhythm 4x Something like this then the C-Em

    Em       G           C                     C      Em
e:--------------------]------0--------------]-------------|
B:--------------------]------1------5-------]--5--5-------|
G:------0-------------]------0------5-------]--5--5---0---|
D:------2----------0--]------2------5--5h7--]--5--5---2---|
A:------2------0h2----]--3-3-3--3/7---------]--3--3---2---|
E:--0-0-0--2h3--------]---------------------]---------0---|


    2x Then back to verse rythm 4x.

      Em        G           C        D
e:--------------3--3--]---------------------|
B:-----------x--3--3--]--x--5--5--x--7--7---|
G:--x--0--0--x--4--4--]--x--5--5--x--7--7---|
D:--x--2--2--x--5--5--]--x--5--5--x--7--7---|
A:--x--2--2--x--5--5--]--x--3--3--x--5--5---|
E:--x--0--0-----3--3--]---------------------|


    Chorus 3x Then the G-F-C

    G     C     G     C           G  F     C
e:--3--3--------3--3-----------]--3--1--1-----|
B:--3--3--5--5--3--3--5--------]--3--1--1--5--|
G:--4--4--5--5--4--4--5--------]--4--2--2--5--|
D:--5--5--5--5--5--5--5--------]--5--3--3--5--|
A:--5--5--3--3--5--5--3--2--0--]--5--3--3--3--|
E:--3--3--------3--3-----------]--3--1--1-----|


    After the G-F-C,return to the Em-G-C-D verse

    Em      G      C      D
e:----------3-----------------------------------|
B:----------3------5------7---------------------|
G:--0-------4------5------7---------------------|
D:--2-------5------5------7---------------------|
A:--2-------5------3------5---------------------|
E:--0-------3-----------------------------------|
Comments