Outlandish - Walou Chords & Tabs

 

Walou Chords & Tabs

Outlandish Chords & Tabs

Version: 1 Type: Tab 0 ratings
1 star 2 stars 3 stars 4 stars 5 stars
comments

Walou Tab

   
Title: Walou
Artist: Outlandish

Tabbed by: Mikhail Punjani (mikkyd@hotmail.com)

Tuning: Standard (E A D G B E)

Well this is the first ever complete tab of 'walou' on the net, which took me a bit of
time to tab out. The timing for this song is quite difficult, so all you have to do is practice..have fun!

Intro:

|-------------------------------------------------3----------||
|---------11-9---------8-6-4---------6-5---5---6-------------||
|------10------------8-------------6-------5---5-------------||
|---10-------------8-------------6---------------------------||
|-8--------------6-------------4-----------3---3--3----------||
|------------------------------------------------------------||

Although the verse mostly stays the same, there are some riff changes:

Verse:

|--------------------------------------------------------3-----||
|---------11-9---------8-6-4---------6-5---------5---6---------||
|------10------------8-------------6-----------5---5---5-------||
|---10-------------8-------------6-----------5-----------------||
|-8--------------6-------------4-----------3-------------------||
|--------------------------------------------------------------||


Chorus:

|-------------------------------------------------3---------||
|---------11-9---------8--6----------6-5---5---6--6---------||
|------10------------8-------------6-------5---5------------||
|---10-------------8-------------6--------------------------||
|-8--------------6--------6----4-----------3---3--3---------||
|-----------------------------------------------------------||

Bridge:
[ Tab from: http://www.guitartabs.cc/tabs/o/outlandish/walou_tab.html ]
|---------------------------------------------------------||
|---------11---11----9----9------6----6------5----5-------||
|------10---10-----8----8------6----6------5----5---------|| (3x)
|---10---10------8----8------6----6------5----5-----------||
|-8----8-------6----6------4----4------3----3-------------||
|---------------------------------------------------------||

On the 4th bar of the bridge (the final one) play this:

|--------------------------------------------------3-------||
|---------11---9-----8----6------6----5------5-------------||
|------10---10-----8----8------6----6------5----5----------|| 
|---10---10------8----8------6----6------5----5------------||
|-8----8-------6----6------4----4------3----3--------------||
|----------------------------------------------------------||


Solo Spanish Guitar: (2.45)

|-------------------------------------------4-------------3------||
|----------11---9--8-------8-6-4--------6--------5------6--------||
|-------10---------------8------------6---6------5----5----------||
|----10------10--------8------------6---------------5------------||
|--8-----------------6------------4--------------3------3-3------||
|----------------------------------------------------------------||

|--------------------------------------------4-------3-----------||
|--9---11--9h11p9h8---6--8------6----------6-----5-6-6-----------||
|--10--------------------8--8-----8------6-------5-5-------------||
|--10--------------------8----8--------6-------------------------||
|--8---8-----------------6-----------4-------4---3-3-3-----------||
|----------------------------------------------------------------||


If you have any questions or comments, e-mail me at mikkyd@hotmail.com
Comments