Outlandish - Aicha Chords & Tabs

 

Aicha Chords & Tabs

Outlandish Chords & Tabs

Version: 2 Type: Tab 1 rating
1 star 2 stars 3 stars 4 stars 5 stars
comments

Aicha Tab

   
Title: Aicha
Artist Outlandish

Intro:	|Bm G|D A|Bm G|F#m Em| 
	+ 4 measures only with drums

Verse 1: For the first 8 measures only the bas is played from then on it's like in the intro
	|Bm G|D A|Bm G|D A| x2 only bass
	|Bm G|D A|Bm G|F#m Em| x2
Chorus:
	|Bm G|D A|Bm G|F#m Em| 
	|Bm G|D A|Bm G|F#m break| 

Vers 2:	|Bm G|D A|Bm G|D A| x2	

Chorus: |Bm G|D A|Bm G|F#m Em| 

Bridge: |Bm|C |Em|C |
	|Am|D |Bm|Em|
	|C |Em|Bm|Bm|
	|Bm|Bm|

Verse 3: |Bm G|D A|Bm G|F#m Em| x2
	|Bm G|break|

Chorus/:|Bm G|D A|Bm G|F#m Em| x2 to the end
Outro   

INTRO:
  Bm	G        D     A           Bm    G      F#m    Em
|-----------3--------------5---|-------7-----3-------9-7------|
|-----3-----3--------7-----5---|-----------------------8------|
|--------------------7---------|-----7-----4-----------9------|
|---4-----4--------7-----7-----|---------5--------11---9------|
|-2------------4/5-------------|----------------9------7------|
|-------3--------------5-------|-6/7--------------------------|

Verse 1:
|------------------------------|------------------------------|
|------------------------------|------------------------------|
|------------------------------|------------------------------|
|------------------------------|------------------------------| X2
|-2-----------5----------------|-2-----------5----------------|
|------3-3---------5-5---------|------3-3---------5-5---------|

  Bm	G        D   A             Bm    G       F#m Em
|-----------3--------------5---|-------7-----3-------7--------|
|-----3-----3--------7-----5---|-------7-----3----10-8----8/7-|
|-----4--------------7---------|-----7-----4------11-9----9/7-|
|---4-----4--------7-----7-----|---------5--------11-9----9/7-|
|-2------------4/5-------------|---------------/9----7--------|
|-------3--------------5-------|-6/7--------------------------|

  Bm	G        D   A             Bm    G      F#m  Em
|-----------3--------------5---|-------7-----3----------------|
|-----3-----3--------7-----5---|-------7-----3----10/8--------|
|-----4--------------7---------|-----7-----4------11/9--------|
|---4-----4--------7-----7-----|---------5--------11/9--------|
|-2------------4/5-------------|--------------5/9-------------|
|-------3--------------5-------|-6/7--------------------------|

Chorus:
  Bm	G        D    A               Bm      G      F#m  Em
|-----------3---------5-------------|---------------------7--------|
|-----3-----3------7--5--5/7/5------|-7/8-----3--------10-8--------|
|-----4------------7--6--------7-6-4|---------4--------11-9--------|
|---4-----4--------7----------------|------------------11-9--------|
|-2------------4/5------------------|----------------9----7--------|
|-------3-------------5-------------|------------------------------|
[ Tab from: http://www.guitartabs.cc/tabs/o/outlandish/aicha_tab_ver_2.html ]
  Bm	G        D   A             Bm    G     F#m 
|-----------3--------5----5----|------------------------------|
|-----3-----3------7-5----5----|---3----3---------------------|
|-----4------------7-6----6----|---4----4----------X-X--------|
|---4-----4--------7-----------|--------5----------X-X--------|
|-2------------4/5-------------|-2-------------/9--X-X--------|
|-------3------------5----5----|------3-----------------------|


Verse 2: 2nd guitar
			 D A				  D A
|------------------------5-5---|--------------------------5-5-|
|------------------------7-5---|--------------------------7-5-|
|-9/11-9-------------------6---|-9/11-9---------------------6-| x2
|--------12-11-9----7----------|--------12-11-9----/12--------|
|------------------------------|------------------------------|
|------------------------------|------------------------------|
			 D A				  D A
|------------------------------|------------------------------|
|------------------------------|------------------------------|
|-9/11-9-----------------------|-9/11-9-----------------------| x2
|--------12-11-9----7----------|--------12-11-9----/12--------|    1st guitar plays
|------------------------------|------------------------------|    Bm G D A like in the intro
|------------------------------|------------------------------|

Bridge:
|Bm|C |Em|C |
|Am|D |Bm|Em|
|C |Em|Bm|Bm|
|Bm|Bm| with light strumming


Verse 3:
  Bm	G        D     A           Bm    G      F#m    Em
|--------------------------5---|-------7-----3---------7------|
|-----3-----3--------7-----5---|------------------10/8-8------|
|-----4-----4--------7---------|-----7-----4------11/9-9------|
|---4-----4--------7-----7-----|---------5--------11/9-9------|
|-2------------4/5-------------|---------------/9------7------|
|-------3--------------5-------|-6/7--------------------------|

  Bm	G      D     A           Bm    G     F#m   Em
|-----3----------------5-------|---------------------7--------|
|-----3-----3------7---5-------|-----3-----3----10/8-8--------|
|-----------4------7-----------|-----4-----4----11/9-9--------|
|-4-4-----4------7-------------|---4-----4------11/9-9--------|
|--------------5---------------|-2-----------/9---------------|
|-------3------------5---------|-------3----------------------|

  Bm    G
|-----------3------------------|
|-----3-----3------------------|
|-----4---4--------------------|
|---4---5----------------------|
|-2----------------------------|
|------------------------------|

Chorus/outro:
  Bm	G        D     A           Bm    G      F#m    Em
|--------------------------5---|------------------------------|
|-----3-----3--------7-----5---|-----3-----3------10/8-8------|
|-----4-----4--------7---------|-----4-----4------------------|
|---4-----4--------7-----7-----|---4-----4--------------------|
|-2------------4/5-------------|-2--------------9-------------|
|-------3--------------5-------|-------3----------------------|

  Bm	G        D     A           Bm    G      F#m    Em
|--------------------------5---|------------------------------|
|-----3-----3--------7-----5---|-----3-----3------10/8-8------|
|-----4-----4--------7---------|-----4-----4------11/9-9------| To fade where 1st guitar plays like in verse 2
|---4-----4--------7-----7-----|---4-----4--------11/9-9------| 
|-2------------4/5-------------|-2-------------/9-------------|
|-------3--------------5-------|-------3----------------------|


Comments