Outkast - Hey Ya Chords & Tabs

 

Hey Ya Chords & Tabs

Outkast Chords & Tabs

Version: 1 Type: Tab 0 ratings
1 star 2 stars 3 stars 4 stars 5 stars
comments

Hey Ya Tab

HEY YA
OUTKAST

Tabbed by: Alysha
Main Riff:
e|---------------------------------------------------------------|
B|---------------------------------------------------------------|
G|---------------------------------------------------------------|
D|---------------------------------------------------------------|
A|------------3-3-3-3-3-3--3-3-3-3-3--5-5------------------------|
E|-3-3-3-3-3-------------------------------0-0-0-0-0--0-0-0-0-0--|
[ Tab from: http://www.guitartabs.cc/tabs/o/outkast/hey_ya_tab.html ]
Chorus:[w/Flanger]
"Hey Ya,...Hey ya...Don't want to meet your daddy..."
e|---------------------------------------------------------------|
B|---------------------------------------------------------------|
G|---------------------------------------------------------------|
D|---------------------------------------------------------------|
A|------------3-3-3-3-3-3--3-3-3-3-3--5-5------------------------|
E|-3-3-3-3-3-------------------------------0-0-0-0-0--0-0-0-0-0--|

Bridge: [w/Flanger] (start right when he says..)
"Give me some sugar, I am your neighboor..."
e|---------------------------------------------------------------|
B|---------------------------------------------------------------|
G|---------------------------------------------------------------|
D|---------------------------------------------------------------|
A|------------3-3-3-3-3-3--3-3-3-3-3--5-5--2-2-2-2-2--2-2-2-2-2--|
E|-3-3-3-3-3-----------------------------------------------------|
Comments