Outkast - Draculas Wedding Chords & Tabs

 

Draculas Wedding Chords & Tabs

Outkast Chords & Tabs

Version: 1 Type: Tab 0 ratings
1 star 2 stars 3 stars 4 stars 5 stars
comments

Draculas Wedding Tab

   
PLEASE NOTE
This file is the author's own work and represents their 
interpretation of the song. You may only use this file for 
private study, scholarship, or 
research. 


Title: 		Dracula's Wedding
Band: 		OutKast
Album:		The Love Below
Transcribed By:	AnDro0z13 (and-roo-zee)
My Email:	Squall72788@hotmail.com

Verse: (Your all I've ever wanted...)

A guitar or piano plays a D#m chord throughout the verse:
E|--6-------11------2--
B|--7-------11------4--
G|--8---or--11--or--3--
D|--8-------13------1--
A|--6-------13------x--
E|--x-------11------x--

Bass Part During Verse:
E|----------------------------
B|----------------------------
G|---------------------------- repeat over and over
D|----------------------------
A|-------9s11s9---------------
E|-14p11--------11-11-9h11----
[ Tab from: http://www.guitartabs.cc/tabs/o/outkast/draculas_wedding_tab.html ]
Chorus: (I wait my whole life...)
E|---9-----6----
B|---9-----6----
G|---10----7---- x2
D|---11----8----
A|---11----8----
E|---9-----6----
     C#	   A#  	

Bass Part in Chorus:
E|-----------------------------------------------------------
B|-----------------------------------------------------------
G|-----------------------------------------------------------
D|-----------------------------------------------------------
A|-(11h13-11s13s11s13s11)------------------------------------
E|-------------------------9----6----9----6------------------

The part with Kelis is just like the rest of the song. I don't have the 
instrumental that sounds like a Xerox machine tabbed out but I know you 
can use the D#m blues-type scale that starts out like this:

E|-11-14----
B|-11-14----
G|-11-13----
D|-11-13----
A|-11-13----
E|-11-14----

Even more OutKast tabs on the way, direct only to the Guitar Tab 
Universe at wwww.guitartabs.cc

-AnDro0z13
Comments