Outfield - All The Love In The World Chords & Tabs

 

Outfield Chords & Tabs

Version: 1 Type: Bass Tab 0 ratings
1 star 2 stars 3 stars 4 stars 5 stars
comments

All The Love In The World Bass Tab

   
Artist: The Outfield
Song: All the Love in the World (bass tab)

From "The Outfield Live" album 2003
4-string bass, standard tuning


Verse (Repeat 3x):
  E                           Eb  C#                          B   A
G:-------|-------|-------|-------|-------|-------|-------|-------|-------|
D:-------|-------|-------|-------|-------|-------|-------|-------|-------|
A:7-7-7-7|7-7-7-7|7-7-7-7|7-7-6-6|4-4-4-4|4-4-4-4|4-4-4-4|4-4----|-------|
E:-------|-------|-------|-------|-------|-------|-------|----7-7|5-5-5-5|
                        B E
G:-------|-------|-------|-------|-------|-------|-------|
D:-------|-------|-------|-------|-------|-------|-------|
A:-------|-------|-------|-------|-------|-------|-------|
E:5-5-5-5|5-5-5-5|5-5-5-7|0-0-0-0|0-0-0-0|0-0-0-0|0-0-0-0|

Chorus:
  B       A       B       A       B       A
G:-------|-------|-------|-------|-------|-------|
D:-------|-------|-------|-------|-------|-------|
A:2-2-224|0-0-000|2-2-224|0-0-000|2-2-224|0------|
E:-------|-------|-------|-------|-------|-------|

Verse (Repeat 2x)
Chorus

Bridge:
  C#                              B
G:-------|-------|-------|-------|-------|-------|-------|-------|
D:-------|-------|-------|-------|-------|-------|-------|----4--|
A:4-4-4-4|4-4-4-4|4-4-4-4|4-4-4-4|2-2-2-2|2-2-2-2|2-2-2-2|2-2---2|
E:-------|-------|-------|-------|-------|-------|-------|-------|

  C#                              B
G:-------|-------|-------|-------|-------|-------|-------|-------|
D:-------|-------|-------|-------|-------|-------|-------|-------|
A:4-4-4-4|4-4-4-4|4-4-4-4|4-4-4-4|2-2-2-2|2-2-2-2|2-2-2-2|2-2-2-2|
E:-------|-------|-------|-------|-------|-------|-------|-------|

Verse (Repeat 3x)
Play this riff between first two verses:
G:-------|
D:----9--|
A:7-0--79|
E:-------|
[ Tab from: http://www.guitartabs.cc/tabs/o/outfield/all_the_love_in_the_world_btab.html ]
Verse (stripped down):
  E                               C#                              A
G:-------|-------|-------|-------|-------|-------|-------|-------|-------|
D:-------|-------|-------|-------|-------|-------|-------|-------|-------|
A:7------|-------|7-7----|-------|4------|-------|4-4----|-------|-------|
E:-------|-------|-------|-------|-------|-------|-------|-------|5------|

                          E
G:-------|-------|-------|-------|-------|-------|-------|
D:-------|-------|-------|-------|-------|-------|-------|
A:-------|-------|-------|-------|-------|-------|-------|
E:-------|5-5----|-------|0------|-------|-------|-------|

Chorus (Repeat 2x)
Chorus Variation (Repeat 2x):
  B         A       B         A       B         A
G:---------|-------|---------|-------|---------|-------|
D:---------|-------|---------|-------|---------|-------|
A:2-020242-|0-0-000|2-020242-|0-0-000|2-020242-|0------|
E:---------|-------|---------|-------|---------|-------|

Outro:
  A                               B               B
G:-------|-------|-------|-------|-------|-------|-------|-------|
D:-------|-------|-------|-------|-------|-------|-------|-------|
A:0------|-------|-------|-------|2------|-------|2------|-------|
E:-------|-------|-------|-------|-------|-------|-------|-------|

Notes:
The verse could just as easily be played starting with the E on the 2nd fret of the 
for example:
  E                           Eb  C#                          B   A
G:-------|-------|-------|-------|-------|-------|-------|-------|-------|
D:2-2-2-2|2-2-2-2|2-2-2-2|2-2-1-1|-------|-------|-------|-------|-------|
A:-------|-------|-------|-------|4-4-4-4|4-4-4-4|4-4-4-4|4-4-2-2|0-0-0-0|
E:-------|-------|-------|-------|-------|-------|-------|-------|-------|
                        B E
G:-------|-------|-------|-------|-------|-------|-------|
D:-------|-------|-------|-------|-------|-------|-------|
A:0-0-0-0|0-0-0-0|0-0-0-2|-------|-------|-------|-------|
E:-------|-------|-------|0-0-0-0|0-0-0-0|0-0-0-0|0-0-0-0|

I don't like this way as much, because you play two open strings, and the hand position 
on the lower frets.  Also, from the video, it looks like Tony plays it the way I have tabbed.

Tabbed 12/2/2007 by Scott Herzog at aerosurfer21@yahoo.com.  Email with corrections or comments.
Comments