Outer Limits - Heather Chords & Tabs

 

Heather Chords & Tabs

Outer Limits Chords & Tabs

Version: 1 Type: Tab 0 ratings
1 star 2 stars 3 stars 4 stars 5 stars
comments

Heather Tab

   
-------------------------------------------------------------------------------
			     Heather - Outer Limits
-------------------------------------------------------------------------------

Tabbed by:HOckeyadic
Email:Hockeyman203@aol.com
[ Tab from: http://www.guitartabs.cc/tabs/o/outer_limits/heather_tab.html ]
Tuning:EADGBe
(Intro/verse)Not distorted fist time. distortion second time
e|---------------------------------------------------------------------------|
B|---------------------------------------------------------------------------|
G|-------------7777777777-9999999999-555555555-------------------------------|
D|--555555555--7777777777-9999999999-555555555-------------------------------|
A|--555555555--5555555555-7777777777-333333333-------------------------------|
E|--333333333----------------------------------------------------------------|
Not distorted. have echo. its a magical feel.
e|---------------------------------------------------------------------------|
B|---------------------------------------------------------------------------|
G|--------------------7---------7--------9-----9-----5-----------------------|
D|----5----------5------7---7-7---7----9-----9-----5-------------------------|
A|------5----5-5----5-----5----------7-----7-----3---------------------------|
E|--3------3-----------------------------------------------------------------|
Inturlude. Un distorted slide one every note
e|---------------------------------------------------------------------------|
B|---------------------------------------------------------------------------|
G|---------------------------------------------------------------------------|
D|-----------------7-5-4----9-7-5---5---5-------------754----9-7-5---5---5---|
A|-----5--3--2---5--------7-------3---3------5-3-2--5------7-------3---3-----|
E|--3--------------------------------------3---------------------------------|
Chorus
e|--------------------------------------------------------------+3-----------|
B|---------------------------------------------------------------------------|
G|-------------------5-5-5-5-5-5-5-5--------------5-5-5~~----------+0--------|
D|--7-7-7-7-7-7-7-7--5-5-5-5-5-5-5-5--7-7-7-7-7-7-5-5-5~~--------------------|
A|--7-7-7-7-7-7-7-7--3-3-3-3-3-3-3-3--7-7-7-7-7-7-3-3-3~~--------------------|
E|--5-5-5-5-5-5-5-5-------------------5-5-5-5-5-5----------15-\3-------+3-)-3|



| /  slide up
| \  slide down
| h  hammer-on
| p  pull-off
| ~  vibrato
| +  harmonic
| x  Mute note
| )  Wami bar

Intro
Verse
Verse
Chorus
Inturlude
verse 
Outro

Lyrics

Swing swing swing
Like a carousel and
Sing sing sing
like you never fell
but can you see were all right
 
Thinking bout things ive never thought before
Thinking about the times when i held the door
Thinking about our first date
Thinking about those times 
thinking when you say will you be mine
man i cant wait

Waiting for that moment here it  comes
heres our first time out
lets have some fun
thinking bout if i fall in love and stair
im getting lost in your beautiful hair

I cant wait 
this moment is to great
i remember the times
we will be fine 
do you remember

Swing swing swing
Like a carousel and
Sing sing sing
like you never fell
but can you see were all right

Swing swing swing
Like a carousel and
Sing sing sing
like you never fell
but can you see were all right
===============================================================================
Comments