Ours - The Mean Between Extremes Chords & Tabs

 

The Mean Between Extremes Chords & Tabs

Ours Chords & Tabs

Version: 1 Type: Tab 0 ratings
1 star 2 stars 3 stars 4 stars 5 stars
comments

The Mean Between Extremes Tab

   
----------------------------------------------------------------------------
		      THE MEAN BETWEEN EXTREMES - OURS
----------------------------------------------------------------------------
Tabbed by: Erik Weatherwax
Email: erik.weatherwax@sbcglobal.net

I play the song tuned a half step down, which allows you to use open chords.

 
Intro

Eb|----1-1-1-1----1-1-1-1---|
Bb|----3-3-3-3----3-3-3-3---|
Gb|----2-2-2-2----2-2-2-2---|
Db|-0-----------------------| x4
Ab|------------0------------|
Eb|-------------------------|

Verse

Dm         Am
Yesterday's sorrow

       Gm        Dm
Not forgetting tomorrow...and so on, pretty easy rhythm



prechorus

Dm            C          Dm
Today all the troubles exceed

       Dm    C            Gm
As the media help destroy dreams

       Dm         C           Dm
With a duke and a reverend it seems

   C                      Gm         C Dm
We can't find the mean between extremes

Then go...

Fill

Eb|-----------------------------------------------------------------------|
Bb|-----------------------------------------------------------------------|
Gb|-5--5-5-5-5-5/9--9-9-9-9-7--7-7-7-7/10--10-10-10-10-7--7-7-7-7-9-9-9-7-|
Db|-----------------------------------------------------------------------|
Ab|-3--3-3-3-3-3/7--7-7-7-7-5--5-5-5-5/=8---8--8--8--8-5--5-5-5-5-7-7-7-5-|
Eb|-----------------------------------------------------------------------|


  
Solo (the reason I put together a new tab)
[ Tab from: http://www.guitartabs.cc/tabs/o/ours/the_mean_between_extremes_tab.html ]
Eb|------------------------------------------------------------------------------|
Bb|------------------------------------------------------------------------------|
Gb|-9-10-10/12--12\10-9-9--9-10-10/14--14-12-10--0h7-7-7-7-7-7/10-10-10-10-10----|
Db|------------------------------------------------------------------------------|
Ab|------------------------------------------------------------------------------|
Eb|------------------------------------------------------------------------------|

  
Eb|-----------------------------------------------------------------------|
Bb|------------------------------------------------13b----11-10-11--10----|
Gb|-0h7-7-7-7-7-7/14-14-10-12--9-10-10/12--12\10-9------------------------|
Db|-----------------------------------------------------------------------|
Ab|-----------------------------------------------------------------------|
Eb|-----------------------------------------------------------------------|


  
Eb|------------------13p10-----------------------------------------------------------------------------|
Bb|---------10h11-13-------13-11-10-------------------------------------------------10b11-13b14-15b16--|
Gb|-9h10-12-------------------------12-10-9------------------7-9-7--/12-10-9-/9-9-7--------------------|
Db|-----------------------------------------12-10-9-7-7h9-10-------------------------------------------|
Ab|----------------------------------------------------------------------------------------------------|
Eb|----------------------------------------------------------------------------------------------------|


   
  
|---------13p10----10----------10-------------------------------|
|-10~-13~-------13----13-11/13----10-11-11/13-11-10-------------|
|---------------------------------------------------12-12/14----|
|---------------------------------------------------------------|
|---------------------------------------------------------------|
|---------------------------------------------------------------|
Comments