Ours - Sometimes Chords & Tabs

 

Sometimes Chords & Tabs

Ours Chords & Tabs

Version: 1 Type: Tab 0 ratings
1 star 2 stars 3 stars 4 stars 5 stars
comments

Sometimes Tab

Band: Ours
Song: Sometimes

tabbed by: Batman
tuning: i'm assuming normal E


*intro* (clean guitar)

--------------------------
--------------------------
--------------------------
--------------------------
-----10--10-----9--9----7-
--0----------0------------


--------------------------
--------------------------
-----12--12----11-11----9-
------x---x-----x--x----x-
-----10--10-----9--9----7-
--0----------0------------

*Guitar 1* (with distortion)
[ Tab from: http://www.guitartabs.cc/tabs/o/ours/sometimes_tab.html ]
--222-3-2-3----------0---------------------}\ 
--333-3-3-3-(strum)--5-(bend-or-use-whammy-} \
--222-2-2-2--------------------------------}  \ repeat 4 times along w/guitar 2
-------------------------------------------}  /
-------------------------------------------} / 
-------------------------------------------}/
                     
*Guitar 2* (with distortion)

--222-3-2-3--------------------------------}\                           
--333-3-3-3-(strum)------------------------} \
--222-2-2-2-----------12--12----11-11----9-}  \ repeat 4 times than do:|
-------------------2---x---x-----x--x----x-}  /                        | 
-------------------2--10--10-----9--9----7-} /                         |
-------------------0----------0------------}/                          |
        							       |	
             
Comments