Ours - Meet Me In The Tower Chords & Tabs

 

Meet Me In The Tower Chords & Tabs

Ours Chords & Tabs

Version: 1 Type: Tab 0 ratings
1 star 2 stars 3 stars 4 stars 5 stars
comments

Meet Me In The Tower Tab

   
Ours - Meet Me In The Tower
Written By Jimmy Gnecco
Tabbed By Corbin Hicks (stratocaster_1998@yahoo.com)

---------------------
Even though the 
whole album is 
great, I must say, 
this is definitely 
one of the highlights
---------------------

This is completely my interpretations...I'm sure a lot is missing/wrong, but, 
I think it's a great start.

Please, PLEASE note that I never emphasize timing on my tabs, it is a must that you listen
to the tune to figure out where the notes go.  It's too much of a hassle to make tabs, and
Even much worse to spend time on timing, and it's not too hard to pick it up yourself, so
Ciao!

-Corbin


Opening/Verses:
--------------

E|-------------------------------------------
B|--3----3----3----3----2----2----2----2-----
G|--0----0----0----0----0----0----0----0-----
D|-----4----4----4----4----4----4----4----4--
A|-------------------------------------------
E|-------------------------------------------
There's a slightly distorted electric playing Bm with a little wah-wah occasionally
during this.

I think there's a little acoustic here also, playing Bm and A, I know that's what the bass is
playing anyway...




Chorus:
------
Chords:  Em, G, A
And the little lead you hear during the chorus over the chords:
[ Tab from: http://www.guitartabs.cc/tabs/o/ours/meet_me_in_the_tower_tab.html ]
E|--7-----7-----7-----7-----7-------9------9------9------9------9-----------
B|----8-----8-----8-----8-----8---8---10-----10-----10-----10-----10--------
G|------9-----9-----9-----9-----9--------9------9------9------9------9------
D|--------------------------------------------------------------------------
A|--------------------------------------------------------------------------
E|--------------------------------------------------------------------------




Pre-Bridge:
----------
Strum some Bm and throw in this fill somewhere right before the bridge

E|----------------------
B|----------------------
G|--4--6--7--9----------
D|----------------------
A|--2--4--5--7----------
E|----------------------



Bridge:
------

F#m, A, D, A




Post-Bridge:
-----------

Dm, A, Dm, A



Slide Solo:
----------

This is played over the chorus chords  (Em, G, A)

E|--------------------------------------------------------------------
B|--------------------------------------------------------------------
G|--14-\-11-\-4----14-\-4-/-6----14-\-11-\-4----14-\-4-/-6------------
D|--------------------------------------------------------------------
A|--------------------------------------------------------------------
E|--------------------------------------------------------------------


E|-----------------------------------------
B|-----------------------------------------
G|--14-\-11-\-6-\-4----14-\-11-\-4-/-6-----
D|-----------------------------------------
A|-----------------------------------------
E|-----------------------------------------
Comments