Ours - Im A Monster Chords & Tabs

 

Im A Monster Chords & Tabs

Ours Chords & Tabs

Version: 1 Type: Tab 0 ratings
1 star 2 stars 3 stars 4 stars 5 stars
comments

Im A Monster Tab

-------------------------------------------------------------------------------
			     I'M A MONSTER - Ours
-------------------------------------------------------------------------------

By:Lachrymal
[ Tab from: http://www.guitartabs.cc/tabs/o/ours/im_a_monster_tab.html ]
A very easy song to play.  Standard tuning.  I'll just tab out the cords and you
can figure out the strumming pattern.

Verse:
e|-0--|-0--|-3--|-0--|
B|-1--|-1--|-3--|-0--|
G|-2--|-0--|-0--|-0--|
D|-2--|-2--|-0--|-2--|
A|-0--|-3--|-2--|-2--|
E|-0--|-0--|-3--|-0--|

Chorus:
e|-3--|-2--|-0--|-0--|
B|-3--|-3--|-1--|-0--|
G|-0--|-2--|-2--|-0--|
D|-2--|-0--|-2--|-2--|
A|-3--|-0--|-0--|-2--|
E|-0--|-0--|-0--|-0--|
Comments