Ours - Here Is The Light Chords & Tabs

 

Here Is The Light Chords & Tabs

Ours Chords & Tabs

Version: 2 Type: Tab 0 ratings
1 star 2 stars 3 stars 4 stars 5 stars
comments

Here Is The Light Tab

-Sorry that i didn't list the chord names, laziness got to me...
-email me if changes need to be done (which is most likely) Zachcomp86@home.com
-Good song off of "Distorted Lullabies"

Intro part thingy
e|--0-0-0-0-0-0-0------x-x-x-------
B|--0-1-0-1-0-1-0------0-0-0-------
G|--2-2-2-2-2-2-2------0-0-0-------
D|--2-2-2-2-2-2-2------2-2-2-------   and repeat a few times
A|--0-0-0-0-0-0-0------2-2-2-------
E|---------------------0-0-0-------
[ Tab from: http://www.guitartabs.cc/tabs/o/ours/here_is_the_light_tab_ver_2.html ]
Verse part
e|--x-x-x-x------x-x-x-x-----------
B|--x-x-x-x------x-x-x-x-----------
G|--4-4-4-4------0-0-0-0-----------
D|--4-4-4-4------2-2-2-2-----------   repeats many times (obviously)
A|--2-2-2-2------2-2-2-2-----------
E|--2-2-2-2------0-0-0-0-----------
    *not sure about first chord

Bridge/softer part
e|--x-x-x---x-x-x------x-x-x-------
B|--1-1-1---3-3-3------1-0-1-------
G|--0-0-0---0-0-0------2-2-2-------
D|--2-2-2---0-0-0------2-2-2-------   
A|--3-3-3---2-2-2------0-0-0-------
E|----------3-3-3------0-0-0-------
                         ^it sometimes changes up like that

not a hard song, luckily. Jimmy Gnecco is the next Jeff Buckley though.


Comments