Ours - Fallen Souls Chords & Tabs

 

Fallen Souls Chords & Tabs

Ours Chords & Tabs

Version: 1 Type: Tab 0 ratings
1 star 2 stars 3 stars 4 stars 5 stars
comments

Fallen Souls Tab

   
Ours - Fallen Souls
Written By Jimmy Gnecco
Tabbed By Corbin Hicks (stratocaster_1998@yahoo.com)

This is completely my interpretations...I'm sure a lot is missing/wrong, but, 
I think it's a great start.

Please, PLEASE note that I never emphasize timing on my tabs, it is a must that you listen
to the tune to figure out where the notes go.  It's too much of a hassle to make tabs, and
Even much worse to spend time on timing, and it's not too hard to pick it up yourself, so
Ciao!

-Corbin


Opening Riff:  (Strum Bm on an Acoustic over this)
------------
E|--------------------------
B|--------------------------
G|--------------------------
D|--------------------------
A|--2------------/7-----6~--
E|------3--2----------------




Pre-Chorus Thingy:  (Strum Fm, G#, and Bbm on an Acoustic over this )
-----------------
E|------------------------------------------------------
B|--13br-13--13br-11--------13brb-13-11-13--13br-13-----
G|-------------------13---------------------------------
D|------------------------------------------------------
A|------------------------------------------------------
E|------------------------------------------------------




Chorus:
------
Just play around with these three chords
C#m, Gm, Fm




Post Chorus Power Chord Thingy:
------------------------------
B    C



[ Tab from: http://www.guitartabs.cc/tabs/o/ours/fallen_souls_tab.html ]
2nd Verse: (Strum Bm on an Acoustic over this)
---------
E|-----------------------
B|-----------------------
G|-----------------------
D|-----------------------
A|-----------------------
E|--5h7-7-5h7-7-5h7--------
Do a lot of palm muting and a lot of hammer-ons here..





This fills come in before the second Chorus:
-------------------------------------------
Fill 1
E|------------------------------
B|--17--16----9--9/12--12/14----
G|------------------------------
D|------------------------------
A|------------------------------
E|------------------------------

Fill 2
E|--------------------------------------
B|--10h12--10h12--10h12--10h12---12br---
G|--------------------------------------
D|--------------------------------------
A|--------------------------------------
E|--------------------------------------



Bridge: (Strum these chords: C#m, G#m, Eb, B over this)
------

E|----------------------------------------------------------
B|--17-----17-----16-----16-----14----14---16---16br~-------
G|----18-----18-----16-----16-----15----15---16-------------
D|----------------------------------------------------------
A|----------------------------------------------------------
E|----------------------------------------------------------

E|----------------------------------------------------------
B|--17-----17-----16-----16-----14----14--------------------
G|----18-----18-----16-----16-----15----15--16--------------
D|----------------------------------------------------------
A|----------------------------------------------------------
E|----------------------------------------------------------



Ending Chords:

C#m, Bm, E, A
Comments