Our Last Night - Reason To Love Acoustic Chords & Tabs

 

Reason To Love Acoustic Chords & Tabs

Our Last Night Chords & Tabs

Version: 3 Type: Tab 0 ratings
1 star 2 stars 3 stars 4 stars 5 stars
comments

Reason To Love Acoustic Tab

   
-----------------------------------------------------------------------------
                    Our Last Night - Reason To Love
-----------------------------------------------------------------------------
Tabbed by:Metalcoreking
Email:Matthessell@live.com

Tuning:EADGAD CAPO 4TH FRET

INTRO
D|---------7/9-4-2-2-2-2------------------------------------------------(X2)|
A|-2/5-5/7---------------4-4-4/5--------------------------------------------|
G|--------------------------------------------------------------------------|
D|--------------------------------------------------------------------------|
A|--------------------------------------------------------------------------|
E|--------------------------------------------------------------------------|

VERSE I
D|-0----0----0----0-----------------------------------------------------(X2)|
A|-0----0----0----0---------------------------------------------------------|
G|-4----7----7----4---------------------------------------------------------|
D|-4----7----7----5---------------------------------------------------------|
A|-2----5----0----5---------------------------------------------------------|
E|-------------------------------------------------------------------------|

PRE CHORUS
D|-0----0----0----0---------------------------------------------------------|
A|-0----0----0----0---------------------------------------------------------|
G|-2----4----4----6---------------------------------------------------------|
D|-2----4----5----7---------------------------------------------------------|
A|-0----2----5----7---------------------------------------------------------|
E|-----------3----5---------------------------------------------------------|
[ Tab from: http://www.guitartabs.cc/tabs/o/our_last_night/reason_to_love_acoustic_tab_ver_3.html ]
CHORUS
D|-0----0----0----0-----------------------------------------------------(X2)|
A|-0----0----0----0---------------------------------------------------------|
G|-4----7----6----4---------------------------------------------------------|
D|-4----7----7----5---------------------------------------------------------|
A|-2----5----0----5---------------------------------------------------------|
E|-----------0----3---------------------------------------------------------|
 
D|-7---7---7---7---4---4---4---4----2---2---2---2----2/5-4---4---4------(X2)|
A|---5---5---5---5---5---5---5---5----5---5---5---5--------5---5---5--------|
G|--------------------------------------------------------------------------|
D|--------------------------------------------------------------------------|
A|--------------------------------------------------------------------------|
E|--------------------------------------------------------------------------|

VERSE II
D|----------------------------------------------------------------------(X2)|
A|--------------------------------------------------------------------------|
G|--------------------------------------------------------------------------|
D|--------------------------------------------------------------------------|
A|---5---5---5---5----2---2---2---2----5---5---5---5----2---2---2---2-------|
E|-7---7---7---7----3---3---3---3----5---5---5---5----0---0---0---0---------|

PRE CHORUS

CHORUS

BRIDGE
D|-----------|----0----0----0-------------------------------------------(X3)|
A|-----------|----0----0----0-----------------------------------------------|
G|-----------|----0----4----2-----------------------------------------------|
D|-----------|----2----4----2-----------------------------------------------|
A|-5----5----|----2----2----0-----------------------------------------------|
E|-3----2----|----0---------0-----------------------------------------------|

D|-0----0----0----0---------------------------------------------------------|
A|-0----0----0----0---------------------------------------------------------|
G|-0----0----0----0---------------------------------------------------------|
D|-2----0----0----0---------------------------------------------------------|
A|-2----5----5----7---------------------------------------------------------|
E|-0----2----3----5---------------------------------------------------------|

VERSE I

CHORUS

INTRO

OUTRO
D|-------0---------0---------0---------0--------------------------------(X2)|
A|---------0---------0---------0---------0----------------------------------|
G|--------------------------------------------------------------------------|
D|---4---------7---------2---------0-------(0)------------------------------|
A|-2---2-----5---5-----0---0------------------------------------------------|
E|-------------------------------3---3--------------------------------------|

************************************

| /   slide up
| \   slide down
| h   hammer-on
| p   pull-off
| ~   vibrato
| +   harmonic
| x   Mute note
| b   Bend
| pb  Pre-bend
| br  Bend release
| pbr Pre-bend release
| brb Bend release bend

************************************
Comments