Our Last Night - Into The Future Chords & Tabs

 

Into The Future Chords & Tabs

Our Last Night Chords & Tabs

Version: 2 Type: Tab 0 ratings
1 star 2 stars 3 stars 4 stars 5 stars
comments

Into The Future Tab

I think it might be played in drop C#, its not perfect but it sounds right.


Intro:
e|-----------------------------------------------------------|
B|-----------------------------------------------------------|
G|--------------------------------------------------8-8-7-7--|
D|-1--------------------------------1----------------8-8-8-8-|
A|-1--1-1-1-6-5h6-----6-6-----6-6---1--1-1-1-6-5h6-----------| 
D|-1--1-1-1-------5-5-----6-6-------1--1-1-1-----------------|
      . . .                            . . .

e|----------------------------------------------------------------|
B|----------------------------------------------------------------|
G|----------------------------------------------------------------|
D|-1--------------------------------1-----------------------------|
A|-1--1-1-1-6-5h6-----6-6-----6-6---1--1-1-1-6-5h6-----6-6-----8-8| 
D|-1--1-1-1-------5-5-----6-6-------1--1-1-1-------5-5-----6-6----|
      . . .                            . . .


Verse 1: (not exactly sure how many times you strum 8)
e|----------------------------------------------------|
B|----------------------------------------------------|
G|----------------------------------------------------|
D|-1---5-5-5-6-6-6-8-8-8-8-8-8-8-8-8-8-8-8------------|
A|-1---5-5-5-6-6-6-8-8-8-8-8-8-8-8-8-8-8-8------------| 
D|-1---5-5-5-6-6-6-8-8-8-8-8-8-8-8-8-8-8-8------------|

e|----------------------------------------------|
B|----------------------------------------------|
G|----------------------------------------------|
D|-1---6-6-6-6-6-6-6-6-8-8-8-8-8-8-8-8-8-8------|
A|-1---6-6-6-6-6-6-6-6-8-8-8-8-8-8-8-8-8-8------| 
D|-1---6-6-6-6-6-6-6-6-8-8-8-8-8-8-8-8-8-8------|
   
  (only strum 1 24 times)
e|---------------------------|
B|---------------------------|
G|---------------------------|
D|-10-10-10-6-6-6-1----------|
A|-10-10-10-6-6-6-1-x24------| 
D|-10-10-10-6-6-6-1----------|
    .  .  . . . . .

e|---------------------------------|
B|---------------------------------|
G|---------------------------------|
D|-10---6---1------1-1--1-1--1-1---|
A|-10---6---1-x20--1-1--1-1--1-1---| 
D|-10---6---1------1-1--1-1--1-1---|
            . 

Pre-Chorus:
e|---------------------------|
B|---------------------------|
G|---------------------------|
D|-8h7-----8h7---------------|
A|----8h5-----8h5--5h6h8-----| 
D|---------------------------| x2

Chorus:
e|--------------------------------------------------|
B|--------------------------------------------------|
G|-----------------------------------------8--------|
D|-1----5----6-----1----5----6------10-----8-x8-----|
A|-1-x8-5-x4-6-x4--1-x8-5-x4-6-x4---10-x8--6--------| 
D|-1----5----6-----1----5----6------10--------------|

e|----------------------------------------------------------------|
B|----------------------------------------------------------------|
G|----------------------------------------------------------------|
D|-6-6-6-6---6-6-6-6---6-6-6-6-6-6-6-6-----6-6-6-6-----8-8-8-8----|
A|-6-6-6-6---6-6-6-6---6-6-6-6-6-6-6-6-6-6-6-6-6-6-6-6-8-8-8-8----| 
D|-6-6-6-6---6-6-6-6---6-6-6-6-6-6-6-6-6-6-6-6-6-6-6-6-8-8-8-8----|
                                       . .         . .

Verse 2: (short pause at first)
e|---------------------------------------------------|
B|---------------------------------------------------|
G|---------------------------------------------------|
D|----5-5-5-6-6-6-8-8-8-8-8-8-8-8-8-8-8-8------------|
A|----5-5-5-6-6-6-8-8-8-8-8-8-8-8-8-8-8-8------------| 
D|----5-5-5-6-6-6-8-8-8-8-8-8-8-8-8-8-8-8------------|

e|----------------------------------------------|
B|----------------------------------------------|
G|----------------------------------------------|
D|-1---6-6-6-6-6-6-6-6-8-8-8-8-8-8-8-8-8-8------|
A|-1---6-6-6-6-6-6-6-6-8-8-8-8-8-8-8-8-8-8------| 
D|-1---6-6-6-6-6-6-6-6-8-8-8-8-8-8-8-8-8-8------|

e|------------------------------|
B|-----------------4------------|
G|-----------------3------------|
D|--10---6---1-----1------------|
A|--10---6---1-----1------------| 
D|--10---6---1-----1------------| x2

(repeat pre-chorus)
Chorus:
e|--------------------------------------------------|
B|--------------------------------------------------|
G|-----------------------------------------8--------|
D|-1----5----6-----1----5----6------10-----8-x8-----|
A|-1-x8-5-x4-6-x4--1-x8-5-x4-6-x4---10-x8--6--------| 
D|-1----5----6-----1----5----6------10--------------|

e|----------------------------------------------------------------|
B|----------------------------------------------------------------|
G|-----------------------------8-----10-----12-----10-------------|
D|-6-6-6-6---6-6-6-6---6-6-6-6-x-x4--x--x4---x-x4--x--x4----------|
A|-6-6-6-6---6-6-6-6---6-6-6-6-6-----8------10-----8--------------| 
D|-6-6-6-6---6-6-6-6---6-6-6-6------------------------------------|

e|----------------------------------------------------------------|
B|----------------------------------------------------------------|
G|----------------------------------------------------------------|
D|-6-6-6-6---6-6-6-6---6-6-6-6-6-6-6-6-----6-6-6-6-----8-8-8-8----|
A|-6-6-6-6---6-6-6-6---6-6-6-6-6-6-6-6-6-6-6-6-6-6-6-6-8-8-8-8----| 
D|-6-6-6-6---6-6-6-6---6-6-6-6-6-6-6-6-6-6-6-6-6-6-6-6-8-8-8-8----|
                                       . .         . .
[ Tab from: http://www.guitartabs.cc/tabs/o/our_last_night/into_the_future_tab_ver_2.html ]
Bridge:
e|----------------------------------------------|
B|----------------------------------------------|
G|----------------------------------------------|
D|----------------------------------------------|
A|--13-13-13-12---13-13-10-10--5-5-6------------| 
D|--13-13-13-12---13-13-10-10--5-5-6------------| x4                                 
not sure how many time to strum 12 and 6  

e|-----------------------------------------------|
B|--------------4-------4----------------------4-|
G|--------------7-------7----------------------7-|
D|--1--1--------------------1-1------------------|
A|--1--1--1-1-1---1-1-1---1-1-1--1-1-1---1-1-1---| 
D|--1--1--1-1-1---1-1-1---1-1-1--1-1-1---1-1-1---|
          . . .   . . .   .      . . .   . . .
e|----------------------------------------------------|
B|--------------4-------4-----------------------------|
G|--------------7-------7-----------------------------|
D|--1--1--------------------1-1-----------------------|
A|--1--1--1-1-1---1-1-1---1-1-1--1-1-1---1-1-1--------| 
D|--1--1--1-1-1---1-1-1---1-1-1--1-1-1---1-1-1-5h6p5--|
          . . .   . . .   .      . . .   . . .
e|-----------------------------------------------|
B|--------------4-------4----------------------4-|
G|--------------7-------7----------------------7-|
D|--1--1--------------------1-1------------------|
A|--1--1--1-1-1---1-1-1---1-1-1--1-1-1---1-1-1---| 
D|--1--1--1-1-1---1-1-1---1-1-1--1-1-1---1-1-1---|
          . . .   . . .   .      . . .   . . .
e|----------------------------------------------------|
B|--------------4-------4-----------------------------|
G|--------------7-------7-----------------------------|
D|--1--1--------------------1-1-----------------------|
A|--1--1--1-1-1---1-1-1---1-1-1--1-1-1---1-1-1--------| 
D|--1--1--1-1-1---1-1-1---1-1-1--1-1-1---1-1-1-5h6p5--|
          . . .   . . .   .      . . .   . . .
Verse 3?:
e|------|--------------------------|
B|------|------------------4-------|
G|-8p7--|------------------3-------|
D|----8-|x8--10---6---1----1-------|
A|------|----10---6---1----1-------| 
D|------|----10---6---1----1-------|
      . 
Pre-Chorus:
e|-----------------------------------------|
B|-----------------------------------------|
G|-----------------------------------------|
D|-8h7-----8h7------------8h7----8h7-------|
A|----8h5-----8h5--5h6h8-----8h5----8h5----| 
D|-----------------------------------------|

Chorus:
e|--------------------------------------------------|
B|--------------------------------------------------|
G|-----------------------------------------8--------|
D|-1----5----6-----1----5----6------10-----8-x8-----|
A|-1-x4-5-x2-6-x2--1-x4-5-x2-6-x2---10-x8--6--------| 
D|-1----5----6-----1----5----6------10--------------|

e|----------------------------------------------------------------|
B|----------------------------------------------------------------|
G|----------------------------------------------------------------|
D|-6-6-6-6---6-6-6-6---6-6-6-6-6-6-6-6-----6-6-6-6-----6-6-6-6----|
A|-6-6-6-6---6-6-6-6---6-6-6-6-6-6-6-6-6-6-6-6-6-6-6-6-6-6-6-6----| 
D|-6-6-6-6---6-6-6-6---6-6-6-6-6-6-6-6-6-6-6-6-6-6-6-6-6-6-6-6----|

e|--------------------------------------------------|
B|--------------------------------------------------|
G|-----------------------------------------8--------|
D|-1----5----6-----1----5----6------10-----8-x8-----|
A|-1-x4-5-x2-6-x2--1-x4-5-x2-6-x2---10-x8--6--------| 
D|-1----5----6-----1----5----6------10--------------|

e|----------------------------------------------------------------|
B|----------------------------------------------------------------|
G|----------------------------------------------------------------|
D|-6-6-6-6---6-6-6-6---6-6-6-6-6-6-6-6-----6-6-6-6-----8-8-8-8----|
A|-6-6-6-6---6-6-6-6---6-6-6-6-6-6-6-6-6-6-6-6-6-6-6-6-8-8-8-8----| 
D|-6-6-6-6---6-6-6-6---6-6-6-6-6-6-6-6-6-6-6-6-6-6-6-6-8-8-8-8----|
                                       . .         . .

Outro:
e|-----------------------------------------------------------|
B|-----------------------------------------------------------|
G|--------------------------------------------------8-8-7-7--|
D|-1--------------------------------1----------------8-8-8-8-|
A|-1--1-1-1-6-5h6-----6-6-----6-6---1--1-1-1-6-5h6-----------| 
D|-1--1-1-1-------5-5-----6-6-------1--1-1-1-----------------|
      . . .                            . . .

e|-----------------------------------------------------------|
B|-----------------------------------------------------------|
G|--------------------------------------------------8--7-----|
D|-1--------------------------------1---------------x--x-----|
A|-1--1-1-1-6-5h6-----6-6-----6-6---1--1-1-1-6-5h6--6--5-----| 
D|-1--1-1-1-------5-5-----6-6-------1--1-1-1-----------------|
      . . .                            . . .

e|-----------------------------------------------|
B|--------------4-------4----------------------4-|
G|--------------7-------7----------------------7-|
D|--1--1--------------------1-1------------------|
A|--1--1--1-1-1---1-1-1---1-1-1--1-1-1---1-1-1---| 
D|--1--1--1-1-1---1-1-1---1-1-1--1-1-1---1-1-1---|
          . . .   . . .   .      . . .   . . .
e|----------------------------------------------------------|
B|--------------4-------4-----------------------------------|
G|--------------7-------7-----------------------------------|
D|--1--1--------------------1-1------------------------1----|
A|--1--1--1-1-1---1-1-1---1-1-1--1-1-1---1-1-1---------1----| 
D|--1--1--1-1-1---1-1-1---1-1-1--1-1-1---1-1-1-5h6p5---1----|
          . . .   . . .   .      . . .   . . .

. = palm mute
h = hammer on
p = pull off
Comments