Our Lady Peace - Wipe That Smile Off Your Face Chords & Tabs

 

Wipe That Smile Off Your Face Chords & Tabs

Our Lady Peace Chords & Tabs

Version: 1 Type: Tab 0 ratings
1 star 2 stars 3 stars 4 stars 5 stars
comments

Wipe That Smile Off Your Face Tab

   
Band: Our Lady Peace 
Song: Wipe That Smile Off Your Face
Album: Healthy in Paranoid Times

Tabbed by: Marc L.

Awesome song off OLP's newest album. Im sure the parts where 
I didnt show the rhythm like the chorus can be figured out easily. 

Tuning (Eb Ab Db Gb Bb Eb)


Chords throughout the whole song:

  C        Bb       Ab      C  C  Bb  
  
  W        W        W       Q  Q  H
|-4--------2--------5-------4--4--2----|
|-5--------4--------5-------5--5--4----|
|-6--------4--------6-------6--6--4----|
|-6--------4--------7-------6--6--4----|
|-4--------2--------7-------4--4--2----|
|-------------------5------------------|


Guitar II during verse:
[ Tab from: http://www.guitartabs.cc/tabs/o/our_lady_peace/wipe_that_smile_off_your_face_tab.html ]
  Q  Q  Q  Q  Q  Q  Q  Q  Q  Q  Q  Q  Q  Q  E  E  E  E
|------------------------------------------------------|
|-5--5--5--5--4--4--4--4--------------5--5--2-----2----|
|-6--6--6--6--4--4--4--4--6--6--6--6--6--6-----4-----4-|
|-------------------------7--7--7--7-------------------|
|------------------------------------------------------|
|------------------------------------------------------|


Post Chorus Riff:

  Q  Q E S E S E  E Q H   3x
|-------------------------||
|------------------------o||
|-------------------------||
|-2-----------------------||
|----4-2-4-2-4-2--2-2-4--o||
|-------------------------||


Solo with weird octave(?) effect

   Q   H   Q   Q   H   Q   Q  H  Q   E   E   E   H
|-16------16--14------14--12----12--11--12--11--------|
|-----14----------12----------------------------14----|
|----------------------------13-----------------------|
|-----------------------------------------------------|
|-----------------------------------------------------|
|-----------------------------------------------------|


Duration Legend
---------------
W - whole; H - half; Q - quarter; E - 8th; S - 16th; T - 32nd; X - 64th


Misc Legend
-----------
 |  - bar
||  - double bar
||o - repeat start
o|| - repeat end
*|  - double bar (ending)
Comments