Our Lady Peace - Will The Future Blame Us Chords & Tabs

 

Will The Future Blame Us Chords & Tabs

Our Lady Peace Chords & Tabs

Version: 1 Type: Tab

Will The Future Blame Us Tab

   
Title: Will The Future Blame Us
Artist: Our Lady Peace
Tabbed by: _O_L_P_

Standard Tuning: e,B,G,D,A,e

Guitar I (lead): Slightly Distorted 
Guitar II (rhythm): Distorted

Intro:
Guitar I
e-------------------------------|
B---15-14--13-14---17-14--13-14-|
G-14--------------14------------|
D-------------------------------|x4
A-------------------------------|
E-------------------------------|

Guitar II
e-----------------------------------------------------------------|
B-----------------------------------------------------------------|
G-----------------9-9-9-9-9-9-9-9-7-7-7-7-7-7-7-7-7-7-7-7-7-7-7-7-|
D-7-7-7-7-7-7-7-7-9-9-9-9-9-9-9-9-7-7-7-7-7-7-7-7-7-7-7-7-7-7-7-7-|x2
A-7-7-7-7-7-7-7-7-7-7-7-7-7-7-7-7-5-5-5-5-5-5-5-5-5-5-5-5-5-5-5-5-|
E-5-5-5-5-5-5-5-5-------------------------------------------------|

1st verse:
Guitar II
e--------|      |--------------------------|
B--------|      |--------------------------|
G--------|(rest)|--------------------7-----|
D-7~~~~--|      |-7~~7xx-7xxxx-7xx-7-7--9--|
A-7~~~~--|      |-7~~7xx-7xxxx-7xx-7-5--9--|
E-5~~~~--|      |-5~~5xx-5xxxx-5xx-5----7--|

Guitar I
e------------------------------------------|
B------------------------------------------|
G--------------------------------11--------|
D----------------------------------12------|
A------------------------------------12----|
E--------------------------------------14--|
[ Tab from: http://www.guitartabs.cc/tabs/o/our_lady_peace/will_the_future_blame_us_tab.html ]
Chorus:
Guitar I,II
e-----------------------------------------------------------------|
B-----------------------------------------------------------------|
G---------------------------------7-7-7-7-7-7-7-7-7-7-7-7-7-7-7-7-|
D-7-7-7-7-7-7-7-7-5-5-5-5-5-5-5-5-7-7-7-7-7-7-7-7-7-7-7-7-7-7-7-7-|x2
A-7-7-7-7-7-7-7-7-5-5-5-5-5-5-5-5-5-5-5-5-5-5-5-5-5-5-5-5-5-5-5-5-|
E-5-5-5-5-5-5-5-5-3-3-3-3-3-3-3-3---------------------------------|

Post-chorus:
Intro x1

2nd verse:
Guitar II
e---------------|
B---------------|
G--------7------|
D-7~~~---7---9--|
A-7~~~---5---9--|
E-5~~~-------7--|

Guitar I
e----------------------|
B--------------5-------|
G------7-6-4-6---6-4-6-|
D----------------------|
A----------------------|
E----------------------|

Chorus again

1st part of bridge:
Guitar II
e-----------------------------------------------------------------|
B-----------------------------------------------------------------|
G-----------------9-9-9-9-9-9-9-9-7-7-7-7-7-7-7-7-7-7-7-7-7-7-7-7-|
D-7-7-7-7-7-7-7-7-9-9-9-9-9-9-9-9-7-7-7-7-7-7-7-7-7-7-7-7-7-7-7-7-|x2
A-7-7-7-7-7-7-7-7-7-7-7-7-7-7-7-7-5-5-5-5-5-5-5-5-5-5-5-5-5-5-5-5-|
E-5-5-5-5-5-5-5-5-------------------------------------------------|

Guitar I
e-----------------------------------------------------------------|
B--------14b15r14-------14b15r14-------14b15r14-14-14-12-14b15r14-|
G-----------------------------------------------------------------|
D-----------------------------------------------------------------|x2
A-----------------------------------------------------------------|
E-----------------------------------------------------------------|

2nd part
Guitar I
e--------|  |-------|  |--------|  |--------|
B----2---|  |---0---|  |----3---|  |----2---|
G---2-2--|  |--1-1--|  |---2-2--|  |---2-2--|
D------2-|x2|-----2-|x2|------2-|x2|------2-|x2   x4
A-0------|  |-------|  |-0------|  |-0------|
E--------|  |0------|  |--------|  |--------|

Intro x2
Chorus x2
1st part of bridge x2

Both Guitars end on
e----|
B----|
G----|
D-7--|
A-7--|
E-5--|