Our Lady Peace - Whatever Chords & Tabs

 

Whatever Chords & Tabs

Our Lady Peace Chords & Tabs

Version: 5 Type: Tab 0 ratings
1 star 2 stars 3 stars 4 stars 5 stars
comments

Whatever Tab

   
                       OUR LADY PEACE - WHATEVER
                         TABBED BY DONKEY FLY

Ok , This Is The Ttab To OUR LADY PEACE's 'WHATEVER'

This song is famous for it's intro, as most of it uses the intro alot , i think
its important to get it RIGHT!. This is the way  play it the technique used to
get that unique hollow noise is Muting. To mute , gently rest your fingers on
the string. Not pushing too hard , Check this picture out for some help if 
needed           http://img223.imageshack.us/img223/3959/im0011923ar.jpg    
There are two ways to do this now.....you can strike the string when you mute or
when you've hit the Low E open note , kind of just hammer on but REALLY gently.
you must strike the strings when i comes on to the Low E Then A then Low E again.
Plus It is Always Muted On The 10 Fret So Keep That In Mind.....I hae Put Reminders 
(Number 12 in brackets  *(12)* ) Enjoy , All quiries goto the e-mail at the bottom.


Intro
E|----------------------------------------------------------------||
B|----------------------------------------------------------------||
G|----------------------------------------------------------------||
D|----------------------------------------------------------------||
A|----------------------------------------------------------------||
E|-0-0-0-0---x---0-0-0-0---x-----0-0-0-0---x----0-0-0-0----x------||
            (10)          (10)            (10)            (10)
Pre-Verse   
E|-----------------------------------------------------------------------||
B|-----------------------------------------------------------------------||
G|-----------------------------------------------------------------------||
D|-----------------------------------------------------------------------||
A|-0-0-0-0--------0-0-0-0-------------0-0-0-0------0-0-0-0----------x----||
E|-0-0-0-0---x----0-0-0-0---x--0--x---0-0-0-0---x--0-0-0-0---x---x-----x-||
           (10)            (10)  (10)         (10)        (10)(10)(10)(10)


E|----------------------------------------------------------------||
B|----------------------------------------------------------------||
G|----------------------------------------------------------------||
D|----------------------------------------------------------------||
A|-0-0-0-0-------0-0-0-0------------0-0-0-0--------0-0-0-0--------||
E|-0-0-0-0---x---0-0-0-0---x--0--x--0-0-0-0---x----0-0-0-0----x---||
            (10)          (10)  (10)         (10)            (10)

E|-------------------------------------------------------||
B|-------------------------------------------------------||
G|-------------------------------------------------------||
D|-------------------------------------------------------||
A|-0-0-0-0--------0-0-0-0-------0-0-0-0------0-0-0-0-----||
E|-0-0-0-0---X----0-0-0-0---X---0-0-0-0--X---0-0-0-0-X---|| 
           (10)           (10)          (10)       (10)

Verses
E|---5---------4------7----5-||-5---------4-------7-----5---------||
B|---x----5----x------x----x-||-x----5----x-------x-----x---------||
G|---5--5---5--4------7----5-||-5--5---5--4-------7-----5---------||
D|---------------------------||-----------------------------------||
A|---------------------------||-----------------------------------||
E|---------------------------||-----------------------------------||


Pre-Chorus
E|-----------------------------------------------------------------------||
B|-----------------------------------------------------------------------||
G|-----------------------------------------------------------------------||
D|-----------------------------------------------------------------------||
A|-0-0-0-0--------0-0-0-0-------------0-0-0-0------0-0-0-0---------------||
E|-0-0-0-0---x----0-0-0-0---x--0--x---0-0-0-0---x--0-0-0-0---x--0---x----||
           (10)            (10)  (10)         (10)        (10)    (10)    


E|----------------------------------------------------------------||
B|----------------------------------------------------------------||
G|----------------------------------------------------------------||
D|----------------------------------------------------------------||
A|-0-0-0-0-------0-0-0-0------------0-0-0-0--------0-0------------||
E|-0-0-0-0---x---0-0-0-0---x--0--x--0-0-0-0---x----0-0------------||
            (10)          (10)  (10)         (10)                

Chorus

    C         D         E     
E|----------2-2-2-2-----------------------------------------------||
B|-1-1-1-1--3-3-3-3-----------------------------------------------||
G|-0-0-0-0--2-2-2-2---2-2-2-2-2-2-2-2-----------------------------||
D|-2-2-2-2--0-0-0-0---2-2-2-2-2-2-2-2-----------------------------||
A|-3-3-3-3------------1-1-1-1-1-1-1-1-----------------------------||
E|-0-0-0-0------------0-0-0-0-0-0-0-0-----------------------------||
[ Tab from: http://www.guitartabs.cc/tabs/o/our_lady_peace/whatever_tab_ver_5.html ]
   C         D         E     
E|----------2-2-2-2-----------------------------------------------||
B|-1-1-1-1--3-3-3-3-----------------------------------------------||
G|-0-0-0-0--2-2-2-2---2-2-2-2-2-2-2-------------------------------||
D|-2-2-2-2--0-0-0-0---2-2-2-2-2-2-2-------------------------------||
A|-3-3-3-3------------1-1-1-1-1-1-1-------------------------------||
E|-0-0-0-0------------0-0-0-0-0-0-0-------------------------------||

Bridge
E|-----------------------------------------------------------------------||
B|-----------------------------------------------------------------------||
G|-----------------------------------------------------------------------||
D|-----------------------------------------------------------------------||
A|-0-0-0-0--------0-0-0-0-------------0-0-0-0------0-0-0-0----------x----||
E|-0-0-0-0---x----0-0-0-0---x--0--x---0-0-0-0---x--0-0-0-0---x---x-----x-||
           (10)            (10)  (10)         (10)        (10)(10)(10)(10)


E|----------------------------------------------------------------||
B|----------------------------------------------------------------||
G|----------------------------------------------------------------||
D|----------------------------------------------------------------||
A|-0-0-0-0-------0-0-0-0------------0-0-0-0--------0-0-0-0--------||
E|-0-0-0-0---x---0-0-0-0---x--0--x--0-0-0-0---x----0-0-0-0----x---||
            (10)          (10)  (10)         (10)            (10)

Verse

Pre-chorus

Chorus

    C         D         E      x4
E|----------2-2-2-2-----------------------------------------------||
B|-1-1-1-1--3-3-3-3-----------------------------------------------||
G|-0-0-0-0--2-2-2-2---2-2-2-2-2-2-2-2-----------------------------||
D|-2-2-2-2--0-0-0-0---2-2-2-2-2-2-2-2-----------------------------||
A|-3-3-3-3------------1-1-1-1-1-1-1-1-----------------------------||
E|-0-0-0-0------------0-0-0-0-0-0-0-0-----------------------------||

Solo x2


E|-12------12------12-------12--------12--------------------------||
B|-----15------15------15--------15-----------9b------------------||
G|----------------------------------------------------------------||
D|----------------------------------------------------------------||
A|----------------------------------------------------------------||
E|----------------------------------------------------------------||


E|----------------------------------------------------------------||
B|-11-11-11-11-11-11-11-11-11-11-11-11-11-11-11-11----------------||
G|-10-10-10-10-10-10-10-10-10-10-10-10-10-10-10-10----------------||
D|----------------------------------------------------------------||
A|----------------------------------------------------------------||
E|----------------------------------------------------------------||


E|----------------------------------------------------------------||
B|-10-10-10-10-10-10-10-10-10-10-10-10-10-10-10-10----------------||
G|-10-10-10-10-10-10-10-10-10-10-10-10-10-10-10-10----------------||
D|----------------------------------------------------------------||
A|----------------------------------------------------------------||
E|----------------------------------------------------------------||

E|----------------------------------------------------------------||
B|-11-11-11-11-11-11-11-11-11-11-11-11-11-11-11-11----------------||
G|-10-10-10-10-10-10-10-10-10-10-10-10-10-10-10-10----------------||
D|----------------------------------------------------------------||
A|----------------------------------------------------------------||
E|----------------------------------------------------------------||

E|----------------------------------------------------------------||
B|-13-13-13-13-13-13-13-13/15\------------------------------------||
G|-12-12-12-12-12-12-12-12/14\------------------------------------||
D|----------------------------------------------------------------||
A|----------------------------------------------------------------||
E|----------------------------------------------------------------||

Bridge

Chorus x 4

Outro

E|-3-3-3-3--------------------------------------------------------||
B|-0-0-0-0--2-2-2-2-----------------------------------------------||
G|-0-0-0-0--2-2-2-2--2-2-2-2-2-2-2-2------------------------------||
D|-0-0-0-0--2-2-2-2--2-2-2-2-2-2-2-2------------------------------||
A|-2-2-2-2--0-0-0-0--1-1-1-1-1-1-1-1------------------------------||
E|-3-3-3-3-----------0-0-0-0-0-0-0-0------------------------------|| x2

E|----------------------------------------------------------------||
B|----------------------------------------------------------------||
G|----------------------------------------------------------------||
D|----------------------------------------------------------------||
A|-0-0-0-0-------0-0-0-0---------0-0-0-0--------0-0-0-0-----------||
E|-0-0-0-0---x---0-0-0-0---x-----0-0-0-0---x----0-0-0-0----x------||
            (10)          (10)            (10)            (10)


*END*
Comments