Our Lady Peace - Under Zenith Chords & Tabs

 

Under Zenith Chords & Tabs

Our Lady Peace Chords & Tabs

Version: 1 Type: Tab 0 ratings
1 star 2 stars 3 stars 4 stars 5 stars
comments

Under Zenith Tab

   
Under Zenith

By: David Harrison: blaze@interlog.com
Song: "Under Zenith" by "Our Lady Peace"
Album: "Naveed"(1994)

Here's a song that I've never seen on the net. If you have any questions,
comments, corrections, or additions feel free to e-mail them to me.

Tuning: Down 1/2 A Step

[Intro]
E|----------------------------------------------------------------------
B|-------------------------17---------------------------------17-----15-
G|------------------16~/17----------------------------------------------
D|----------------------------------------------------------------------
A|-14-------------------------------14-----------------14~/15-----------
E|----------------------------------------------------------------------

E|----------------------------------------------------------------------
B|-------------------------17-------------------------------------13~~~\
G|------------------16~/17------------------------------------14--------
D|----------------------------------------------------------------------
A|-14---------------14~/15----------14-----------------14~/15-----------
E|----------------------------------------------------------------------


[Verse]
E|----------------------------------------------------------------------
B|-------------------------17---------------------------------17-----15-
G|------------------16~/17----------------------------------------------
D|----------------------------------------------------------------------
A|-14-------------------------------14-----------------14~/15-----------
E|----------------------------------------------------------------------

E|----------------------------------------------------------------------
B|-------------------------17--------------------------------------x-x-x
G|-16---------------16~/17------------------------------------14---x-x-x
D|-----------------------------------------------------------------x-x-x
A|----------------------------------14-----------------14~/15------x-x-x
E|----------------------------------------------------------------------


[Chorus]
Slide down from the last 17 the last time through!
E|-------------------------------------------------
B|-------------------------------------------------
G|-16-16-16-16-16-16-16-16-16-17-17-17-17-17-17-17-
D|-------------------------------------------------
A|-------------------------------------------------
E|-------------------------------------------------


[Post-Chorus]
E|-0-------------------------x-x-x-0-------------------------------
B|-0-------------------------x-x-x-0-------------------------------
G|-0-------------------------x-x-x-0-------------------------------
D|-2-------------------------x-x-x-2-----------------3-3-3-3-3-333-
A|-2-------------------------x-x-x-2-----------------3-3-3-3-3-333-
E|-0-------------------------x-x-x-0-----------------1-1-1-1-1-111-

E|-0-------------------------x-x-x-0-------------------------------
B|-0-------------------------x-x-x-0-------------------------------
G|-0-------------------------x-x-x-0-------------------------------
D|-2-------------------------x-x-x-2-----------------3-3-3-3-3-333-
A|-2-------------------------x-x-x-2-----------------3-3-3-3-3-333-
E|-0-------------------------x-x-x-0-----------------1-1-1-1-1-111-
[ Tab from: http://www.guitartabs.cc/tabs/o/our_lady_peace/under_zenith_tab.html ]
E|-0-------------------------------0-------------------------------
B|-0-------------------------------0-------------------------------
G|-4-------------------------------2-------------------------------
D|-2-------------------------------2-------------------------------
A|-2-------------------------------2-------------------------------
E|-0-------------------------------0-------------------------------


[Fill 1]
E|-0-------------------------
B|-0-------------------------
G|-0-------------------------
D|-2-------------------------
A|-2-------------------------
E|-0-------------------------


[Solo]
E|----------------------------------------------------------------------
B|----------------------------------------------------------------------
G|----16---16---12~~~~/14-14---14---12~~~~----16---16---12-12-12-----14-
D|-14-------------------------------------/14---------------------------
A|---------------------------------------------------------------/16----
E|----------------------------------------------------------------------

E|----------------------------------------------------------------------
B|----------------------------------------------------------------------
G|-----\12----12--------16---16---12-12-12-----14------\12----12--------
D|------------------/14-------------------------------------------------
A|--16-----14----15------------------------/16------16-----14----15--/19
E|----------------------------------------------------------------------

E|----------------------------------------------------------------------
B|----------------------------------------------------------------------
G|-19-19-19-19\-----12-12-----18----18-----------------19-19-21-19---21-
D|----------------------------------------17-17-17----------------------
A|--------------/14-------/19----19----19----------/19------------------
E|----------------------------------------------------------------------

E|------------------------------
B|------------------------------
G|------------18------18----16\-
D|------------------------------
A|-19\-17~/19------19----17-----
E|------------------------------


[Outro]
   E5             G5          A5             G5
E|---------------------------------------------------
B|-12-12-12-12-12-13-13-13-13-10-10-10-10-10-8--8--8-
G|---------------------------------------------------
D|---------------------------------------------------
A|---------------------------------------------------
E|---------------------------------------------------


End song on "C"


[Chords]
    E5    G5    A5    C
E|-----|-----|-----|--8--|
B|-----|-----|-----|--8--|
G|-----|-----|-----|--9--|
D|--2--|--5--|--7--|-10--|
A|--2--|--5--|--7--|-10--|
E|--0--|--3--|--5--|--8--|


************************************************************************
* Note: You may have noticed that in the verse that the 16 on the "G"  *
*      string sounds the same as 14 on the "A" string only in a higher *
*      pitch. This is because the 16 is the same note as the 14 only   *
*      an octave higher. Throughout the different verses they change   *
*      between those two notes. But because they are the same note you * 
*      don't have to. My point is that the verse I have writen down    *
*      doesn't stay exactly the same but if you just stick with that   *
*      one it still sounds right because they're the same notes, just  *
*      an octave high or low.                                          *
************************************************************************
Comments