Our Lady Peace - Thief Chords & Tabs

 

Thief Chords & Tabs

Our Lady Peace Chords & Tabs

Version: 1 Type: Tab 0 ratings
1 star 2 stars 3 stars 4 stars 5 stars
comments

Thief Tab

Name: clayton

Tabs: Song: Thief
Artist: Our Lady Peace
Tabbed By Clayton Mitchell
Tuned down a half step just like all their songs

Intro and Verse (just repeat however many times needed)
-------------------------------------------------------------------------------------
-------------------------------------------------------------------------------------
--------------------------------------------------------------------11--------------
-------12--12--(12)--(12)--12--14p12-------12--12--------------12---------
---------------------------------------------------------------10-------------------
--10-----------------------------------------10------------------------------------

[ Tab from: http://www.guitartabs.cc/tabs/o/our_lady_peace/thief_tab.html ]
Wierd part, not to sure about it but who cares, it is close (repeat it 
too
 cause i am lazy to write it all out)                   	
"as the world explodes....."                      "this will not go    
away"	
-----------10-----10-----10--------------------------------------------------------------
-------12-----12-----12------------------------------------------------------------------
--------------------------------------------------------------------------------------------
--12-------------------------------------------------------12-12--7----7-/-11----------
--12-------------------------------------------------------12-12--7----7-/-11----------
--10-------------------------------------------------------10-10--5----5-/-9-----------

"there's a house....."  (during this part i just strum a barred D chord 
)

Chorus
---------------------------------------------------------------------------------------------------
----------------------------------------------------------------------------------------------------
--12-12-12-12--9-9-9-9--7-7-7-7-----12-12-12-12--9-9-9-9----------7-------------------
--12-12-12-12--9-9-9-9--7-7-7-7-----12-12-12-12--9-9-9-9--9-9-9--7-------------------
--10-10-10-10--7-7-7-7--5-5-5-5-----10-10-10-10--7-7-7-7--9-9-9--5-------------------
------------------------------------------------------------------------7-7-7----------------------

That's really about it.  There are some little things that i did not 
bother to 
put in.  i'm sure you can figure them out


any suggestions email me at claycatch3@yahoo.com 



Comments