Our Lady Peace - Supersatellite Chords & Tabs

 

Supersatellite Chords & Tabs

Our Lady Peace Chords & Tabs

Version: 1 Type: Tab 0 ratings
1 star 2 stars 3 stars 4 stars 5 stars
comments

Supersatellite Tab

   
##################################################################################
# This file is the author's own work and represents their interpretation of the  #
# song. You may only use this file for private study, scholarship, or research.  #
##################################################################################

Supersatellite

By: David Harrison: blaze@interlog.com
Song: "Supersatellite" by "Our Lady Peace"
Album: "Naveed"(1994)

Tuning: Down 1/2 A Step

[Chords]
    E     A5    G5    F5    E5
E|--0--|-----|-----|-----|-----|
B|--0--|-----|-----|-----|-----|
G|--1--|--2--|-----|-----|-----|
D|--2--|--2--|--5--|--3--|--2--|
A|--2--|--0--|--5--|--3--|--2--|
E|--0--|-----|--3--|--1--|--0--|

[Intro]
E|---------------------------------------------------------------------
B|-----x-x-9---7-----x-x-----9---7-----x-x-----9---7-----x-8---8-8---8-
G|-----x-x-9---7-----x-x-----9---7-----x-x-----9---7-----x-6---6-6h7-6-
D|-----x-x-9---7-----x-x-----9---7-----x-x-----9---7-----x-------------
A|---------------------------------------------------------------------
E|-0---------------------0-----------------0---------------------------
[ Tab from: http://www.guitartabs.cc/tabs/o/our_lady_peace/supersatellite_tab.html ]
E|----------------------------------------------------0----------------
B|-8------9---7-----x-x-----9---7-----x-x-----9---7---0----------------
G|-7------9---7-----x-x-----9---7-----x-x-----9---7---1----------------
D|--------9---7-----x-x-----9---7-----x-x-----9---7---2----------------
A|----------------------------------------------------2----------------
E|----0-----------------0-----------------0-----------0----------------


[Verse 1]

[Pre-Chorus 1]
  
[Chorus]
 
[Verse 2]

[Pre-Chorus 2]
 
[Chorus]


[Interlude]
E|----------------------------------------------------------------
B|----------------------------------------------------------------
G|----------------------------------------------------------------
D|-2---2---2---2---2---2---2---------2---2---2---2---2---3--------
A|-0-5-0-5-0-5-0-5-0-5-0-5-0-------5-0-5-0-5-0-5-0-5-0-5-1--------
E|---3---3---3---3---3---3---------3---3---3---3---3---3----------


[Bridge]-w/palm muting
E|-------------------------------
B|-------------------------------
G|-------------------------------
D|-------------5p0---------------
A|-5h7-7-7-7p5-----7---7-5h7-7-7-
E|-------------------------------


[Chorus]w/the bridge w/out palm muting


That should be enough to give you a good idea of the song. You'll need
to listen to the song to understand the strumming of the chords because
they aren't just straight strumming. There's really two guitars but I
have aranged it for one.
Comments