Our Lady Peace - Supermans Dead Chords & Tabs

 

Supermans Dead Chords & Tabs

Our Lady Peace Chords & Tabs

Version: 5 Type: Tab 0 ratings
1 star 2 stars 3 stars 4 stars 5 stars
comments

Supermans Dead Tab

   
Song: Superman's Dead
Band: Our Lady Peace
Album: Clumsy
Tabber: Birdman_epic
Tunning: Drop down half a step (Eb Ab Db Gb Bb Eb)

This is my first tab, I hope it's easier to read and understand than it was to write. Listen to the song
To get the order and the rythms, they are pretty straight forward so it shouldn't be a problem.
Please rate and maybe I'll keep some OLP tabs coming, and other bands too, of course.

Intro:
G-1
1|----------------------------------------------------------------|
2|----------------------------------------------------------------|
3|----------------------------------------------------------------| 2x
4|--0--0--0--0--0-/-0--0--0--0--0--0--0--0--0--0-/-0--0--0--0--0--|
5|--9--9--9--9--9-/12-12-12-12-12--7--7--7--7--7-/10-10-10-10-10--|
6|--7--7--7--7--7-/10-10-10-10-10--5--5--5--5--5-/-8--8--8--8--8--|

Verse:
G-1
1|----------------------------------------------------------------|
2|----------------------------------------------------------------|
3|----------------------------------------------------------------| 4x
4|--0--0--0--0--0-/-0--0--0--0--0--0--0--0--0--0-/-0--0--0--0--0--|
5|--9--9--9--9--9-/12-12-12-12-12--7--7--7--7--7-/10-10-10-10-10--|
6|--7--7--7--7--7-/10-10-10-10-10--5--5--5--5--5-/-8--8--8--8--8--|

G-2
1|-7-7-7-7-7-7-7-7-7-7-7-7-7-7-7-7-7-7-7-7-7-7-7-7-7-8-8-8-8-8-8-8-|
2|-0-0-0-0-0-0-0-0-0-0-0-0-0-0-0-0-0-0-0-0-0-0-0-0-0-0-0-0-0-0-0-0-|
3|-4-4-4-4-4-4-4-4-4-4-4-4-4-4-4-4-4-4-4-4-4-4-4-4-4-5-5-5-5-5-5-5-| 4x
4|-----------------------------------------------------------------|
5|-----------------------------------------------------------------|
6|-----------------------------------------------------------------|

G-3 (or 1)
Fill at end of fourth time
1|-----------------------|
2|-----------------------|
3|--9--9--9--9--9--9--9--|
4|-10-10-10-10-10-10-10--|
5|-10-10-10-10-10-10-10--|
6|--8--8--8--8--8--8--8--|

Pre-Chorus:
Both Guitars                                              *(Gradually bend the 16)
1|---------------------------------------------------------0--0--0--0--0--0--0--0-|
2|---------------------------------------------------------0--0--0--0--0--0--0--0-|
3|-8-x-8-8-8-8-8-8-11-11-x-11-11-11-11-11-6-6-x-6-6-6-6-6-16-16-16-16-16-16-16-16-|2x
4|-9-x-9-9-9-9-9-9-12-12-x-12-12-12-12-12-7-7-x-7-7-7-7-7-------------------------|
5|-9-x-9-9-9-9-9-9-12-12-x-12-12-12-12-12-7-7-x-7-7-7-7-7-------------------------|
6|-7-x-7-7-7-7-7-7-10-10-x-10-10-10-10-10-5-5-x-5-5-5-5-5-------------------------|

1|---------------------------------------------------------------|
2|---------------------------------------------------------------|
3|---------------------------------------------------------------|
4|--0--0---0--0---0--0---0--0---0--0---0--0---0--0---0--0---0\---|
5|--9--9---9--9--12-12--12-12--12-12---7--7---7--7---7--7--10\---|
6|--7--7---7--7--10-10--10-10--10-10---5--5---5--5---5--5---8\---|

Chorus:
Both Guitars
1|-----------------------------------------|-------------------------------------------|
2|-----------------------------------------|-------------------------------------------|
3|-4-4-4-4-4-7-7-7-7-7-----------5-5-5-5-5-|-4-4-4-4-4-7-7-7-7-------------------------|
4|-4-4-4-4-4-7-7-7-7-7-7-7-7-7-7-5-5-5-5-5-|-4-4-4-4-4-7-7-7-7-7-7-7-7-7-7-7-----------|
5|-2-2-2-2-2-5-5-5-5-5-7-7-7-7-7-3-3-3-3-3-|-2-2-2-2-2-5-5-5-5-7-7-7-7-7-7-7-3-3-3-3-3-|
6|-2-2-2-2-2-5-5-5-5-5-5-5-5-5-5-3-3-3-3-3-|-2-2-2-2-2-5-5-5-5-5-5-5-5-5-5-5---(harm.)-|

1|----------------------------------------|--------------------------------------------|
2|----------------------------------------|--------------------------------------------|
3|-4-4-4-4-4-7-7-7-7-7-----------5-5--5-5-|-4-4-4-4-4-7-7-7-7--------------------------|
4|-4-4-4-4-4-7-7-7-7-7-7-7-7-7-7-5-5--5-5-|-4-4-4-4-4-7-7-7-7-7-7-7-7-7-7-7------------|
5|-2-2-2-2-2-5-5-5-5-5-7-7-7-7-7-3-3--3-3-|-2-2-2-2-2-5-5-5-5-7-7-7-7-7-7-7------------|
6|-2-2-2-2-2-5-5-5-5-5-5-5-5-5-5-3-3--3-3-|-2-2-2-2-2-5-5-5-5-5-5-5-5-5-5-5--5-5--5-5--|
[ Tab from: http://www.guitartabs.cc/tabs/o/our_lady_peace/supermans_dead_tab_ver_5.html ]
Verse 2:
G-1
1|----------------------------------------------------------------|
2|----------------------------------------------------------------|
3|----------------------------------------------------------------|4x
4|--0--0--0--0--0-/-0--0--0--0--0--0--0--0--0--0-/-0--0--0--0--0--|
5|--9--9--9--9--9-/12-12-12-12-12--7--7--7--7--7-/10-10-10-10-10--|
6|--7--7--7--7--7-/10-10-10-10-10--5--5--5--5--5-/-8--8--8--8--8--|

G-2
1|-----0----------0-----------0-----------0----|------0-----------0-----------0---------0----|
2|---7---7-----7-----7-----7-----7-----7-----7-|---7-----7-----7-----7-----7-----7---7-----7-|
3|---------------------------------------------|---------------------------------------------|2x
4|---------------------------------------------|---------------------------------------------|
5|----------5----------------------------------|------------5-----------7--------------------|
6|-7--------------------7-----------8----------|-7---------------------------------8---------|

Bridge:
Both Guitars                                                  *(Gradually bend the 16)
1|-----------------------------------------------------------0--0--0--0--0--0--0--0--|
2|-----------------------------------------------------------0--0--0--0--0--0--0--0--|
3|-8-x-8-8-8-8-8-8--11-11-x-11-11-11-11-11--6-6-x-6-6-6-6-6-16-16-16-16-16-16-16-16--|2x
4|-9-x-9-9-9-9-9-9--12-12-x-12-12-12-12-12--7-7-x-7-7-7-7-7--------------------------| 
5|-9-x-9-9-9-9-9-9--12-12-x-12-12-12-12-12--7-7-x-7-7-7-7-7--------------------------|
6|-7-x-7-7-7-7-7-7--10-10-x-10-10-10-10-10--5-5-x-5-5-5-5-5--------------------------|

                                  *(Gradually bend the 16)
1|---------------------------0--0--0--0--0--0--0--0--|
2|---------------------------0--0--0--0--0--0--0--0--|
3|--6--6--x--6--6--6--6--6--16-16-16-16-16-16-16-16--|
4|--7--7--x--7--7--7--7--7---------------------------|
5|--7--7--x--7--7--7--7--7---------------------------|
6|--5--5--x--5--5--5--5--5---------------------------|

Interlude
Both Guitars
1|--------0--------0--------0-----------------|-------0--------0--------0--------0---|
2|--------0--------0--------0-----------------|-------0--------0--------0--------0---|
3|--4--4--4--3--3--3--2--2--2--1--1--9--9--9\-|-4--4--4--3--3--3--2--2--2--1--1--1---|2x
4|--5--5--5--4--4--4--3--3--3--2--2--x--x--x\-|-5--5--5--4--4--4--3--3--3--2--2--2---|
5|--5--5-----4--4-----3--3-----2--2--7--7--7\-|-5--5-----4--4-----3--3-----2--2------|
6|--3--3-----2--2-----1--1-----0--0-----------|-3--3-----2--2-----1--1-----0--0------|

1|--0--0--0--0--0--0--0--0--0--0--0--0--0--0--0--0--|
2|--0--0--0--0--0--0--0--0--0--0--0--0--0--0--0--0--|
3|--2--2--2--2--2--2--2--2--2--2--2--2--2--2--2--2--|3x
4|--3--3--3--3--3--3--3--3--3--3--3--3--3--3--3--3--|
5|--3--3--3--3--3--3--3--3--3--3--3--3--3--3--3--3--|
6|--1--1--1--1--1--1--1--1--1--1--1--1--1--1--1--1--|

Outro
Both Guitars
1|--3--3--3--3--2--2--2--2-----------------------------------------------3--2--2--2--0--0--0--0--0--0--0--0--0--0--0--|
2|--3--3--3--3--3--3--3--3--2-----2--2-----0-----0--0--0--0-----------3--3--3--3--3--2--2--2--2--2--2--2--2--2--2--2--|
3|--0--0--0--0--2--2--2--2--2-----2--2--0--0-----0--0--0--0--0-----0--0--0--2--2--2--2--2--2--2--2--2--2--2--2--2--2--|
4|--0--0--------0-----0--0--2-----2--2--0--2-----2--2--2--2--0-----0--0-----0--0--0--2--2--2--2--2--2--2--2--2--2--2--|
5|--X--X--------------------0--0--0--0-----2-----2--2--2--2--X-----X--X--------------0--0--0--0--0--0--0--0--0--0--0--|
6|--3--3-----------------------------------0--0--0--0--0--0--3--3--3--3--------------0--0--0--0--0--0--0--0--0--0--0--|
                         
                                       (use this last chord Bsus4 to replace              Em every fourth repeat)
                                       (play 11 times so tat you use Bsus4 twice)
1| --3-3-3-3-3--2-2-2-2-2---------------0-0-0-0-0-0-- |--0-0-0-0-0-0-0-|
2|*--3-3-3-3-3--3-3-3-3-3--2-2-2-2-2-2--0-0-0-0-0-0--*|--0-0-0-0-0-0-0-|
3| --0-0-0-0-0--2-2-2-2-2--2-2-2-2-2-2--0-0-0-0-0-0-- |--4-4-4-4-4-4-4-| 
4| --0-0-0-0-0--0-0-0-0-0--2-2-2-2-2-2--2-2-2-2-2-2-- |--4-4-4-4-4-4-4-|   
5|*--x-x-x-x-x-------------0-0-0-0-0-0--2-2-2-2-2-2--*|--2-2-2-2-2-2-2-| 
6| --3-3-3-3-3--------------------------0-0-0-0-0-0-- |----------------|     

1|--3-3-3-3-3-3--2-|
2|--3-3-3-3-3-3--3-|
3|--0-0-0-0-0-0--2-|
4|--0-0-0-0-0-0--0-|
5|--x-x-x-x-x-x----|
6|--3-3-3-3-3-3----|
Comments